  0
SECTION
  2
HEADER
  9
$ACADVER
  1
AC1014
  9
$ACADMAINTVER
 70
     5
  9
$DWGCODEPAGE
  3
ANSI_1252
  9
$INSBASE
 10
0.0
 20
0.0
 30
0.0
  9
$EXTMIN
 10
-8.870573
 20
-8.842144
 30
0.0
  9
$EXTMAX
 10
474.817998
 20
611.646669
 30
0.0
  9
$LIMMIN
 10
0.0
 20
0.0
  9
$LIMMAX
 10
420.0
 20
297.0
  9
$ORTHOMODE
 70
     1
  9
$REGENMODE
 70
     1
  9
$FILLMODE
 70
     1
  9
$QTEXTMODE
 70
     0
  9
$MIRRTEXT
 70
     0
  9
$DRAGMODE
 70
     2
  9
$LTSCALE
 40
1.0
  9
$OSMODE
 70
    39
  9
$ATTMODE
 70
     1
  9
$TEXTSIZE
 40
3.5
  9
$TRACEWID
 40
0.05
  9
$TEXTSTYLE
  7
ROMANS
  9
$CLAYER
  8
0
  9
$CELTYPE
  6
BYLAYER
  9
$CECOLOR
 62
   256
  9
$CELTSCALE
 40
1.0
  9
$DELOBJ
 70
     1
  9
$DISPSILH
 70
     0
  9
$DIMSCALE
 40
1.0
  9
$DIMASZ
 40
2.5
  9
$DIMEXO
 40
1.5
  9
$DIMDLI
 40
5.0
  9
$DIMRND
 40
0.0
  9
$DIMDLE
 40
0.0
  9
$DIMEXE
 40
1.0
  9
$DIMTP
 40
0.0
  9
$DIMTM
 40
0.0
  9
$DIMTXT
 40
3.0
  9
$DIMCEN
 40
0.0
  9
$DIMTSZ
 40
0.0
  9
$DIMTOL
 70
     0
  9
$DIMLIM
 70
     0
  9
$DIMTIH
 70
     0
  9
$DIMTOH
 70
     0
  9
$DIMSE1
 70
     0
  9
$DIMSE2
 70
     0
  9
$DIMTAD
 70
     1
  9
$DIMZIN
 70
     8
  9
$DIMBLK
  1

  9
$DIMASO
 70
     1
  9
$DIMSHO
 70
     1
  9
$DIMPOST
  1

  9
$DIMAPOST
  1

  9
$DIMALT
 70
     0
  9
$DIMALTD
 70
     2
  9
$DIMALTF
 40
25.4
  9
$DIMLFAC
 40
1.0
  9
$DIMTOFL
 70
     1
  9
$DIMTVP
 40
0.0
  9
$DIMTIX
 70
     0
  9
$DIMSOXD
 70
     0
  9
$DIMSAH
 70
     0
  9
$DIMBLK1
  1

  9
$DIMBLK2
  1

  9
$DIMSTYLE
  2
STANDAARD
  9
$DIMCLRD
 70
   256
  9
$DIMCLRE
 70
   256
  9
$DIMCLRT
 70
     2
  9
$DIMTFAC
 40
0.75
  9
$DIMGAP
 40
1.0
  9
$DIMJUST
 70
     0
  9
$DIMSD1
 70
     0
  9
$DIMSD2
 70
     0
  9
$DIMTOLJ
 70
     1
  9
$DIMTZIN
 70
     8
  9
$DIMALTZ
 70
     8
  9
$DIMALTTZ
 70
     8
  9
$DIMFIT
 70
     0
  9
$DIMUPT
 70
     0
  9
$DIMUNIT
 70
     2
  9
$DIMDEC
 70
     2
  9
$DIMTDEC
 70
     2
  9
$DIMALTU
 70
     2
  9
$DIMALTTD
 70
     2
  9
$DIMTXSTY
  7
ROMANS
  9
$DIMAUNIT
 70
     0
  9
$LUNITS
 70
     2
  9
$LUPREC
 70
     2
  9
$SKETCHINC
 40
0.1
  9
$FILLETRAD
 40
10.0
  9
$AUNITS
 70
     0
  9
$AUPREC
 70
     2
  9
$MENU
  1
wtb2
  9
$ELEVATION
 40
0.0
  9
$PELEVATION
 40
0.0
  9
$THICKNESS
 40
0.0
  9
$LIMCHECK
 70
     0
  9
$BLIPMODE
 70
     0
  9
$CHAMFERA
 40
1.6
  9
$CHAMFERB
 40
2.5
  9
$CHAMFERC
 40
0.0
  9
$CHAMFERD
 40
0.0
  9
$SKPOLY
 70
     0
  9
$TDCREATE
 40
2452466.423157523
  9
$TDUPDATE
 40
2452466.679264329
  9
$TDINDWG
 40
0.0042919907
  9
$TDUSRTIMER
 40
0.0042919907
  9
$USRTIMER
 70
     1
  9
$ANGBASE
 50
0.0
  9
$ANGDIR
 70
     0
  9
$PDMODE
 70
     3
  9
$PDSIZE
 40
0.0
  9
$PLINEWID
 40
0.0
  9
$COORDS
 70
     2
  9
$SPLFRAME
 70
     0
  9
$SPLINETYPE
 70
     6
  9
$SPLINESEGS
 70
     8
  9
$ATTDIA
 70
     0
  9
$ATTREQ
 70
     1
  9
$HANDLING
 70
     1
  9
$HANDSEED
  5
1815
  9
$SURFTAB1
 70
     6
  9
$SURFTAB2
 70
     6
  9
$SURFTYPE
 70
     6
  9
$SURFU
 70
     6
  9
$SURFV
 70
     6
  9
$UCSNAME
  2

  9
$UCSORG
 10
0.0
 20
0.0
 30
0.0
  9
$UCSXDIR
 10
1.0
 20
0.0
 30
0.0
  9
$UCSYDIR
 10
0.0
 20
1.0
 30
0.0
  9
$PUCSNAME
  2

  9
$PUCSORG
 10
0.0
 20
0.0
 30
0.0
  9
$PUCSXDIR
 10
1.0
 20
0.0
 30
0.0
  9
$PUCSYDIR
 10
0.0
 20
1.0
 30
0.0
  9
$USERI1
 70
     0
  9
$USERI2
 70
     0
  9
$USERI3
 70
     0
  9
$USERI4
 70
     0
  9
$USERI5
 70
     0
  9
$USERR1
 40
0.0
  9
$USERR2
 40
0.0
  9
$USERR3
 40
0.0
  9
$USERR4
 40
0.0
  9
$USERR5
 40
0.0
  9
$WORLDVIEW
 70
     1
  9
$SHADEDGE
 70
     3
  9
$SHADEDIF
 70
    70
  9
$TILEMODE
 70
     1
  9
$MAXACTVP
 70
    16
  9
$PINSBASE
 10
0.0
 20
0.0
 30
0.0
  9
$PLIMCHECK
 70
     0
  9
$PEXTMIN
 10
1.000000E+20
 20
1.000000E+20
 30
1.000000E+20
  9
$PEXTMAX
 10
-1.000000E+20
 20
-1.000000E+20
 30
-1.000000E+20
  9
$PLIMMIN
 10
0.0
 20
0.0
  9
$PLIMMAX
 10
12.0
 20
9.0
  9
$UNITMODE
 70
     0
  9
$VISRETAIN
 70
     0
  9
$PLINEGEN
 70
     0
  9
$PSLTSCALE
 70
     0
  9
$TREEDEPTH
 70
  3020
  9
$PICKSTYLE
 70
     1
  9
$CMLSTYLE
  2
STANDARD
  9
$CMLJUST
 70
     0
  9
$CMLSCALE
 40
1.0
  9
$PROXYGRAPHICS
 70
     1
  9
$MEASUREMENT
 70
     1
  0
ENDSEC
  0
SECTION
  2
CLASSES
  0
CLASS
  1
LWPOLYLINE
  2
AcDbPolyline
  3
"AutoCAD"
 90
        0
280
     0
281
     1
  0
CLASS
  1
AMLOADER
  2
AMLoader
  3
AMAcad
 90
        0
280
     0
281
     0
  0
ENDSEC
  0
SECTION
  2
TABLES
  0
TABLE
  2
VPORT
  5
8
100
AcDbSymbolTable
 70
     2
  0
VPORT
  5
1814
100
AcDbSymbolTableRecord
100
AcDbViewportTableRecord
  2
*ACTIVE
 70
     0
 10
0.0
 20
0.0
 11
1.0
 21
1.0
 12
232.973713
 22
301.402262
 13
0.0
 23
0.0
 14
2.5
 24
2.5
 15
5.0
 25
5.0
 16
0.0
 26
0.0
 36
1.0
 17
0.0
 27
0.0
 37
0.0
 40
627.473677
 41
1.650376
 42
50.0
 43
0.0
 44
0.0
 50
0.0
 51
0.0
 71
     0
 72
 20000
 73
     1
 74
     0
 75
     0
 76
     0
 77
     0
 78
     1
  0
ENDTAB
  0
TABLE
  2
LTYPE
  5
5
100
AcDbSymbolTable
 70
     1
  0
LTYPE
  5
12
100
AcDbSymbolTableRecord
100
AcDbLinetypeTableRecord
  2
BYBLOCK
 70
     0
  3

 72
    65
 73
     0
 40
0.0
  0
LTYPE
  5
13
100
AcDbSymbolTableRecord
100
AcDbLinetypeTableRecord
  2
BYLAYER
 70
     0
  3

 72
    65
 73
     0
 40
0.0
  0
LTYPE
  5
14
100
AcDbSymbolTableRecord
100
AcDbLinetypeTableRecord
  2
CONTINUOUS
 70
     0
  3
Solid line
 72
    65
 73
     0
 40
0.0
  0
ENDTAB
  0
TABLE
  2
LAYER
  5
2
100
AcDbSymbolTable
 70
     4
  0
LAYER
  5
F
100
AcDbSymbolTableRecord
100
AcDbLayerTableRecord
  2
0
 70
     0
 62
     8
  6
CONTINUOUS
  0
LAYER
  5
997
100
AcDbSymbolTableRecord
100
AcDbLayerTableRecord
  2
VHH-050
 70
     0
 62
     4
  6
CONTINUOUS
  0
LAYER
  5
998
100
AcDbSymbolTableRecord
100
AcDbLayerTableRecord
  2
VHH-025
 70
     0
 62
     7
  6
CONTINUOUS
  0
LAYER
  5
999
100
AcDbSymbolTableRecord
100
AcDbLayerTableRecord
  2
VHH-070
 70
     0
 62
     4
  6
CONTINUOUS
  0
ENDTAB
  0
TABLE
  2
STYLE
  5
3
100
AcDbSymbolTable
 70
     2
  0
STYLE
  5
10
100
AcDbSymbolTableRecord
100
AcDbTextStyleTableRecord
  2
STANDARD
 70
     0
 40
0.0
 41
1.0
 50
0.0
 71
     0
 42
15.0
  3
txt
  4

  0
STYLE
  5
1C
100
AcDbSymbolTableRecord
100
AcDbTextStyleTableRecord
  2
ROMANS
 70
     0
 40
0.0
 41
1.0
 50
0.0
 71
     0
 42
3.5
  3
romans
  4

  0
ENDTAB
  0
TABLE
  2
VIEW
  5
6
100
AcDbSymbolTable
 70
     2
  0
VIEW
  5
600
100
AcDbSymbolTableRecord
100
AcDbViewTableRecord
  2
VIEW0
 70
     0
 40
297.0
 10
210.0
 20
148.5
 41
420.0
 11
0.0
 21
0.0
 31
1.0
 12
0.0
 22
0.0
 32
0.0
 42
50.0
 43
0.0
 44
0.0
 50
0.0
 71
     0
  0
VIEW
  5
601
100
AcDbSymbolTableRecord
100
AcDbViewTableRecord
  2
VIEW1
 70
     0
 40
297.0
 10
210.0
 20
148.5
 41
420.0
 11
0.0
 21
0.0
 31
1.0
 12
0.0
 22
0.0
 32
0.0
 42
50.0
 43
0.0
 44
0.0
 50
0.0
 71
     0
  0
ENDTAB
  0
TABLE
  2
UCS
  5
7
100
AcDbSymbolTable
 70
     0
  0
ENDTAB
  0
TABLE
  2
APPID
  5
9
100
AcDbSymbolTable
 70
     3
  0
APPID
  5
11
100
AcDbSymbolTableRecord
100
AcDbRegAppTableRecord
  2
ACAD
 70
     0
  0
APPID
  5
37E
100
AcDbSymbolTableRecord
100
AcDbRegAppTableRecord
  2
ADMEPROFILELINK
 70
     0
  0
APPID
  5
974
100
AcDbSymbolTableRecord
100
AcDbRegAppTableRecord
  2
AMACAD
 70
     0
  0
ENDTAB
  0
TABLE
  2
DIMSTYLE
  5
A
100
AcDbSymbolTable
 70
     2
  0
DIMSTYLE
105
4E
100
AcDbSymbolTableRecord
100
AcDbDimStyleTableRecord
  2
STANDARD
 70
     0
  3

  4

  5

  6

  7

 40
1.0
 41
2.2
 42
1.5
 43
7.0
 44
1.2
 45
0.0
 46
0.0
 47
0.0
 48
0.0
140
2.5
141
-3.0
142
0.0
143
25.4
144
1.0
145
0.0
146
1.0
147
0.5
 71
     0
 72
     0
 73
     0
 74
     0
 75
     0
 76
     0
 77
     1
 78
     8
170
     0
171
     2
172
     1
173
     0
174
     0
175
     0
176
   256
177
   256
178
     2
270
     2
271
     4
272
     4
273
     2
274
     2
340
10
275
     0
280
     0
281
     0
282
     0
283
     1
284
     0
285
     0
286
     0
287
     3
288
     0
  0
DIMSTYLE
105
190
100
AcDbSymbolTableRecord
100
AcDbDimStyleTableRecord
  2
STANDAARD
 70
     0
  3

  4

  5

  6

  7

 40
1.0
 41
2.5
 42
1.5
 43
5.0
 44
1.0
 45
0.0
 46
0.0
 47
0.0
 48
0.0
140
3.0
141
0.0
142
0.0
143
25.4
144
1.0
145
0.0
146
0.75
147
1.0
 71
     0
 72
     0
 73
     0
 74
     0
 75
     0
 76
     0
 77
     1
 78
     8
170
     0
171
     2
172
     1
173
     0
174
     0
175
     0
176
   256
177
   256
178
     2
270
     2
271
     2
272
     2
273
     2
274
     2
340
1C
275
     0
280
     0
281
     0
282
     0
283
     1
284
     8
285
     8
286
     8
287
     0
288
     0
  0
ENDTAB
  0
TABLE
  2
BLOCK_RECORD
  5
1
100
AcDbSymbolTable
 70
     4
  0
BLOCK_RECORD
  5
18
100
AcDbSymbolTableRecord
100
AcDbBlockTableRecord
  2
*MODEL_SPACE
  0
BLOCK_RECORD
  5
15
100
AcDbSymbolTableRecord
100
AcDbBlockTableRecord
  2
*PAPER_SPACE
  0
BLOCK_RECORD
  5
1B2
100
AcDbSymbolTableRecord
100
AcDbBlockTableRecord
  2
TEK_INFO
  0
BLOCK_RECORD
  5
988
100
AcDbSymbolTableRecord
100
AcDbBlockTableRecord
  2
A$C7A7B4A19
  0
BLOCK_RECORD
  5
98D
100
AcDbSymbolTableRecord
100
AcDbBlockTableRecord
  2
A$C605007EB
  0
BLOCK_RECORD
  5
992
100
AcDbSymbolTableRecord
100
AcDbBlockTableRecord
  2
A$C32063EEB
  0
ENDTAB
  0
ENDSEC
  0
SECTION
  2
BLOCKS
  0
BLOCK
  5
46
100
AcDbEntity
  8
0
100
AcDbBlockBegin
  2
*MODEL_SPACE
 70
     0
 10
0.0
 20
0.0
 30
0.0
  3
*MODEL_SPACE
  1

  0
ENDBLK
  5
47
100
AcDbEntity
  8
0
100
AcDbBlockEnd
  0
BLOCK
  5
44
100
AcDbEntity
 67
     1
  8
0
100
AcDbBlockBegin
  2
*PAPER_SPACE
 70
     0
 10
0.0
 20
0.0
 30
0.0
  3
*PAPER_SPACE
  1

  0
ENDBLK
  5
45
100
AcDbEntity
 67
     1
  8
0
100
AcDbBlockEnd
  0
BLOCK
  5
1B9
100
AcDbEntity
  8
0
100
AcDbBlockBegin
  2
TEK_INFO
 70
     2
 10
0.0
 20
0.0
 30
0.0
  3
TEK_INFO
  1

  0
ATTDEF
  5
276
100
AcDbEntity
  8
0
100
AcDbText
 10
15.0
 20
31.5
 30
0.0
 40
2.5
  1
A3
  7
ROMANS
100
AcDbAttributeDefinition
  3

  2
FORMAAT
 70
     9
  0
ATTDEF
  5
277
100
AcDbEntity
  8
0
100
AcDbText
 10
15.0
 20
27.5
 30
0.0
 40
2.5
  1
hor
  7
ROMANS
100
AcDbAttributeDefinition
  3

  2
POSITIE
 70
     9
  0
ATTDEF
  5
278
100
AcDbEntity
  8
0
100
AcDbText
 10
15.0
 20
23.5
 30
0.0
 40
2.5
  1
1
  7
ROMANS
100
AcDbAttributeDefinition
  3

  2
AANTAL
 70
     9
  0
ATTDEF
  5
279
100
AcDbEntity
  8
0
100
AcDbText
 10
15.0
 20
19.5
 30
0.0
 40
2.5
  1
1
  7
ROMANS
100
AcDbAttributeDefinition
  3

  2
TEKSCHAAL
 70
     9
  0
ATTDEF
  5
27A
100
AcDbEntity
  8
0
100
AcDbText
 10
15.0
 20
15.5
 30
0.0
 40
2.5
  1
1
  7
ROMANS
100
AcDbAttributeDefinition
  3

  2
SNAPSCHAAL
 70
     9
  0
ATTDEF
  5
27B
100
AcDbEntity
  8
0
100
AcDbText
 10
15.0
 20
11.5
 30
0.0
 40
2.5
  1
1
  7
ROMANS
100
AcDbAttributeDefinition
  3

  2
BLADAANTAL
 70
     9
  0
ENDBLK
  5
1BA
100
AcDbEntity
  8
0
100
AcDbBlockEnd
  0
BLOCK
  5
98B
100
AcDbEntity
  8
0
100
AcDbBlockBegin
  2
A$C7A7B4A19
 70
     0
 10
0.0
 20
0.0
 30
0.0
  3
A$C7A7B4A19
  1

  0
LINE
  5
989
100
AcDbEntity
  8
VHH-050
100
AcDbLine
 10
0.000002
 20
17.677669
 30
0.0
 11
35.355341
 21
17.677669
 31
0.0
  0
LINE
  5
98A
100
AcDbEntity
  8
VHH-050
100
AcDbLine
 10
17.677671
 20
-0.000001
 30
0.0
 11
17.677671
 21
35.355338
 31
0.0
  0
ENDBLK
  5
98C
100
AcDbEntity
  8
0
100
AcDbBlockEnd
  0
BLOCK
  5
990
100
AcDbEntity
  8
0
100
AcDbBlockBegin
  2
A$C605007EB
 70
     0
 10
0.0
 20
0.0
 30
0.0
  3
A$C605007EB
  1

  0
LINE
  5
98E
100
AcDbEntity
  8
VHH-050
100
AcDbLine
 10
0.000002
 20
25.000002
 30
0.0
 11
25.000002
 21
0.000002
 31
0.0
  0
LINE
  5
98F
100
AcDbEntity
  8
VHH-050
100
AcDbLine
 10
0.000002
 20
0.000002
 30
0.0
 11
25.000002
 21
25.000002
 31
0.0
  0
ENDBLK
  5
991
100
AcDbEntity
  8
0
100
AcDbBlockEnd
  0
BLOCK
  5
995
100
AcDbEntity
  8
0
100
AcDbBlockBegin
  2
A$C32063EEB
 70
     0
 10
0.0
 20
0.0
 30
0.0
  3
A$C32063EEB
  1

  0
CIRCLE
  5
993
100
AcDbEntity
  8
VHH-050
100
AcDbCircle
 10
8.838839
 20
8.838837
 30
0.0
 40
1.838835
  0
CIRCLE
  5
994
100
AcDbEntity
  8
VHH-050
100
AcDbCircle
 10
8.838839
 20
8.838837
 30
0.0
 40
8.838835
  0
ENDBLK
  5
996
100
AcDbEntity
  8
0
100
AcDbBlockEnd
  0
ENDSEC
  0
SECTION
  2
ENTITIES
  0
INSERT
  5
27C
100
AcDbEntity
  8
0
100
AcDbBlockReference
 66
     1
  2
TEK_INFO
 10
0.0
 20
0.0
 30
0.0
  0
ATTRIB
  5
27D
100
AcDbEntity
  8
0
100
AcDbText
 10
15.0
 20
31.5
 30
0.0
 40
2.5
  1
A3
  7
ROMANS
100
AcDbAttribute
  2
FORMAAT
 70
     9
  0
ATTRIB
  5
27E
100
AcDbEntity
  8
0
100
AcDbText
 10
15.0
 20
27.5
 30
0.0
 40
2.5
  1
hor
  7
ROMANS
100
AcDbAttribute
  2
POSITIE
 70
     9
  0
ATTRIB
  5
27F
100
AcDbEntity
  8
0
100
AcDbText
 10
15.0
 20
23.5
 30
0.0
 40
2.5
  1
1
  7
ROMANS
100
AcDbAttribute
  2
AANTAL
 70
     9
  0
ATTRIB
  5
280
100
AcDbEntity
  8
0
100
AcDbText
 10
15.0
 20
19.5
 30
0.0
 40
2.5
  1
1
  7
ROMANS
100
AcDbAttribute
  2
TEKSCHAAL
 70
     9
  0
ATTRIB
  5
281
100
AcDbEntity
  8
0
100
AcDbText
 10
15.0
 20
15.5
 30
0.0
 40
2.5
  1
1
  7
ROMANS
100
AcDbAttribute
  2
SNAPSCHAAL
 70
     9
  0
ATTRIB
  5
282
100
AcDbEntity
  8
0
100
AcDbText
 10
15.0
 20
11.5
 30
0.0
 40
2.5
  1
1
  7
ROMANS
100
AcDbAttribute
  2
BLADAANTAL
 70
     9
  0
SEQEND
  5
283
100
AcDbEntity
  8
0
  0
LINE
  5
10F7
100
AcDbEntity
  8
VHH-025
100
AcDbLine
 10
450.409974
 20
604.207869
 30
0.0
 11
452.689495
 21
523.0
 31
0.0
  0
LWPOLYLINE
  5
10F8
100
AcDbEntity
  8
VHH-025
100
AcDbPolyline
 90
        3
 70
     0
 43
0.0
 10
457.531941
 20
585.5
 10
455.2955
 20
585.5
 10
457.579072
 20
541.885357
  0
LINE
  5
10F9
100
AcDbEntity
  8
VHH-025
100
AcDbLine
 10
315.892825
 20
604.476283
 30
0.0
 11
315.892825
 21
558.396587
 31
0.0
  0
LINE
  5
10FA
100
AcDbEntity
  8
VHH-025
100
AcDbLine
 10
388.895016
 20
604.476283
 30
0.0
 11
388.895016
 21
558.396587
 31
0.0
  0
SPLINE
  5
10FB
100
AcDbEntity
  8
VHH-025
100
AcDbSpline
210
0.0
220
0.0
230
1.0
 70
    11
 71
     3
 72
    42
 73
    38
 74
     0
 42
0.0000001
 43
0.0000001
 40
0.0
 40
0.0
 40
0.0
 40
0.0
 40
0.2020226795172709
 40
0.2020226795172709
 40
0.6060680385518129
 40
0.6060680385518129
 40
1.010113397586354
 40
1.010113397586354
 40
1.414158756620896
 40
1.414158756620896
 40
1.774897046269892
 40
1.774897046269892
 40
2.130089007588556
 40
2.130089007588556
 40
2.471304605639319
 40
2.471304605639319
 40
2.812520203690082
 40
2.812520203690082
 40
3.071352036382359
 40
3.071352036382359
 40
3.330183869074637
 40
3.330183869074637
 40
3.713842095834065
 40
3.713842095834065
 40
4.097500322593494
 40
4.097500322593494
 40
4.481158549352922
 40
4.481158549352922
 40
4.864816776112351
 40
4.864816776112351
 40
5.24847500287178
 40
5.24847500287178
 40
5.632133229631208
 40
5.632133229631208
 40
6.015791456390637
 40
6.015791456390637
 40
6.283185307179586
 40
6.283185307179586
 40
6.283185307179586
 40
6.283185307179586
 10
324.6417372985133
 20
576.5515412051118
 30
0.0
 10
324.6417372985133
 20
576.1265904103547
 30
0.0
 10
324.6957473842403
 20
575.7013417411053
 30
0.0
 10
325.0148404388728
 20
574.4540960623417
 30
0.0
 10
325.440345561411
 20
573.6609261076246
 30
0.0
 10
326.6369303582541
 20
572.2790038834737
 30
0.0
 10
327.4093435676013
 20
571.6898772556833
 30
0.0
 10
329.1732543183961
 20
570.8036900308015
 30
0.0
 10
330.1659458622116
 20
570.5063473105183
 30
0.0
 10
332.1050535444792
 20
570.261463797764
 30
0.0
 10
333.0457168030925
 20
570.2794103879969
 30
0.0
 10
334.8458676750678
 20
570.5772000671204
 30
0.0
 10
335.7068170712209
 20
570.8538852360825
 30
0.0
 10
337.2288653088226
 20
571.615487071218
 30
0.0
 10
337.8958705879649
 20
572.0932424149132
 30
0.0
 10
338.9972631756299
 20
573.2038874729605
 30
0.0
 10
339.4297224566507
 20
573.8380687966855
 30
0.0
 10
339.938157220683
 20
575.0281355352199
 30
0.0
 10
340.0744919517165
 20
575.5651042948884
 30
0.0
 10
340.1691542153912
 20
576.6515718378705
 30
0.0
 10
340.1289633384513
 20
577.2005818618644
 30
0.0
 10
339.8134480142298
 20
578.5259645520973
 30
0.0
 10
339.4319852941507
 20
579.2857013668763
 30
0.0
 10
338.3510075679751
 20
580.6293372309355
 30
0.0
 10
337.6496125258563
 20
581.2131430500449
 30
0.0
 10
336.0326434631124
 20
582.1273077646028
 30
0.0
 10
335.1157818844358
 20
582.456587207751
 30
0.0
 10
333.1977006172037
 20
582.8183942675495
 30
0.0
 10
332.195943094156
 20
582.8493936915402
 30
0.0
 10
330.2488350878438
 20
582.610661392182
 30
0.0
 10
329.3037233604691
 20
582.3392525322397
 30
0.0
 10
327.603417979486
 20
581.5317625366652
 30
0.0
 10
326.8491279447935
 20
580.9939434926437
 30
0.0
 10
325.6405732900693
 20
579.7259033320242
 30
0.0
 10
325.1881588328369
 20
578.9936092132502
 30
0.0
 10
324.7362725011689
 20
577.6767025084427
 30
0.0
 10
324.6417372985133
 20
577.1139989929078
 30
0.0
 10
324.6417372985133
 20
576.5515412051118
 30
0.0
  0
SPLINE
  5
10FC
100
AcDbEntity
  8
VHH-025
100
AcDbSpline
210
0.0
220
0.0
230
1.0
 70
    11
 71
     3
 72
    42
 73
    38
 74
     0
 42
0.0000001
 43
0.0000001
 40
0.0
 40
0.0
 40
0.0
 40
0.0
 40
0.2020226795177207
 40
0.2020226795177207
 40
0.6060680385531623
 40
0.6060680385531623
 40
1.010113397588603
 40
1.010113397588603
 40
1.414158756624045
 40
1.414158756624045
 40
1.774897046242743
 40
1.774897046242743
 40
2.130089007394168
 40
2.130089007394168
 40
2.471304605574108
 40
2.471304605574108
 40
2.812520203754048
 40
2.812520203754048
 40
3.071352036479815
 40
3.071352036479815
 40
3.330183869205582
 40
3.330183869205582
 40
3.713842095799154
 40
3.713842095799154
 40
4.097500322392726
 40
4.097500322392726
 40
4.481158548986298
 40
4.481158548986298
 40
4.86481677557987
 40
4.86481677557987
 40
5.248475002173442
 40
5.248475002173442
 40
5.632133228767014
 40
5.632133228767014
 40
6.015791455360586
 40
6.015791455360586
 40
6.283185307179586
 40
6.283185307179586
 40
6.283185307179586
 40
6.283185307179586
 10
364.6417372985133
 20
576.5515412051118
 30
0.0
 10
364.6417372985133
 20
576.1265904103538
 30
0.0
 10
364.6957473842403
 20
575.7013417411026
 30
0.0
 10
365.0148404388746
 20
574.4540960623362
 30
0.0
 10
365.4403455614147
 20
573.6609261076173
 30
0.0
 10
366.6369303582623
 20
572.2790038834655
 30
0.0
 10
367.4093435676131
 20
571.6898772556751
 30
0.0
 10
369.1732543184143
 20
570.8036900307943
 30
0.0
 10
370.1659458622325
 20
570.5063473105128
 30
0.0
 10
372.1050535444264
 20
570.261463797773
 30
0.0
 10
373.0457168029588
 20
570.279410387995
 30
0.0
 10
374.8458676744476
 20
570.5772000669985
 30
0.0
 10
375.7068170702186
 20
570.8538852357505
 30
0.0
 10
377.2288653079185
 20
571.6154870706049
 30
0.0
 10
377.8958705873965
 20
572.0932424144138
 30
0.0
 10
378.9972631755672
 20
573.2038874728241
 30
0.0
 10
379.4297224567571
 20
573.8380687967955
 30
0.0
 10
379.938157220833
 20
575.0281355356801
 30
0.0
 10
380.0744919518301
 20
575.5651042954268
 30
0.0
 10
380.1691542153848
 20
576.6515718385581
 30
0.0
 10
380.128963338363
 20
577.2005818626203
 30
0.0
 10
379.8134480139879
 20
578.525964552542
 30
0.0
 10
379.4319852940352
 20
579.2857013669663
 30
0.0
 10
378.3510075683853
 20
580.6293372304772
 30
0.0
 10
377.6496125266648
 20
581.2131430493918
 30
0.0
 10
376.0326434648423
 20
582.1273077638197
 30
0.0
 10
375.1157818866904
 20
582.456587207027
 30
0.0
 10
373.1977006204479
 20
582.8183942672366
 30
0.0
 10
372.1959430978677
 20
582.8493936915692
 30
0.0
 10
370.2488350922394
 20
582.610661393147
 30
0.0
 10
369.3037233650902
 20
582.3392525337912
 30
0.0
 10
367.6034179841499
 20
581.5317625395237
 30
0.0
 10
366.84912794929
 20
580.9939434962234
 30
0.0
 10
365.6405732937382
 20
579.7259033370137
 30
0.0
 10
365.1881588358628
 20
578.9936092189345
 30
0.0
 10
364.7362725019038
 20
577.6767025127701
 30
0.0
 10
364.6417372985133
 20
577.1139989950752
 30
0.0
 10
364.6417372985133
 20
576.5515412051118
 30
0.0
  0
LINE
  5
10FD
100
AcDbEntity
  8
VHH-025
100
AcDbLine
 10
345.141737
 20
572.671599
 30
0.0
 11
345.141737
 21
581.551541
 31
0.0
  0
LINE
  5
10FE
100
AcDbEntity
  8
VHH-025
100
AcDbLine
 10
359.641737
 20
572.694613
 30
0.0
 11
359.641737
 21
581.551541
 31
0.0
  0
LINE
  5
10FF
100
AcDbEntity
  8
VHH-025
100
AcDbLine
 10
347.517269
 20
576.107147
 30
0.0
 11
346.98863
 21
573.463956
 31
0.0
  0
LINE
  5
1100
100
AcDbEntity
  8
VHH-025
100
AcDbLine
 10
350.263619
 20
573.408215
 30
0.0
 11
350.791735
 21
576.048792
 31
0.0
  0
LINE
  5
1101
100
AcDbEntity
  8
VHH-025
100
AcDbLine
 10
356.463619
 20
573.408215
 30
0.0
 11
356.991735
 21
576.048792
 31
0.0
  0
LINE
  5
1102
100
AcDbEntity
  8
VHH-025
100
AcDbLine
 10
353.717269
 20
576.107147
 30
0.0
 11
353.18863
 21
573.463956
 31
0.0
  0
LINE
  5
1103
100
AcDbEntity
  8
VHH-025
100
AcDbLine
 10
332.568514
 20
573.374765
 30
0.0
 11
335.568514
 21
576.374765
 31
0.0
  0
LINE
  5
1104
100
AcDbEntity
  8
VHH-025
100
AcDbLine
 10
332.214961
 20
573.374765
 30
0.0
 11
329.214961
 21
576.374765
 31
0.0
  0
LINE
  5
1105
100
AcDbEntity
  8
VHH-025
100
AcDbLine
 10
373.741737
 20
579.351541
 30
0.0
 11
370.541737
 21
573.751541
 31
0.0
  0
LINE
  5
1106
100
AcDbEntity
  8
VHH-025
100
AcDbLine
 10
373.791737
 20
576.001541
 30
0.0
 11
373.791737
 21
574.701541
 31
0.0
  0
LINE
  5
1107
100
AcDbEntity
  8
VHH-025
100
AcDbLine
 10
375.491737
 20
576.001541
 30
0.0
 11
375.491737
 21
574.701541
 31
0.0
  0
LINE
  5
1108
100
AcDbEntity
  8
VHH-025
100
AcDbLine
 10
254.377867
 20
604.207869
 30
0.0
 11
252.098346
 21
523.0
 31
0.0
  0
LWPOLYLINE
  5
1109
100
AcDbEntity
  8
VHH-025
100
AcDbPolyline
 90
        3
 70
     0
 43
0.0
 10
247.2559
 20
585.5
 10
249.492341
 20
585.5
 10
247.208769
 20
541.885357
  0
LINE
  5
110A
100
AcDbEntity
  8
VHH-025
100
AcDbLine
 10
272.636426
 20
553.141991
 30
0.0
 11
272.603369
 21
586.038518
 31
0.0
  0
LINE
  5
110B
100
AcDbEntity
  8
VHH-025
100
AcDbLine
 10
291.685992
 20
587.846433
 30
0.0
 11
291.663729
 21
553.200051
 31
0.0
  0
LINE
  5
110C
100
AcDbEntity
  8
VHH-025
100
AcDbLine
 10
274.530323
 20
571.643345
 30
0.0
 11
274.573197
 21
585.247496
 31
0.0
  0
LINE
  5
110D
100
AcDbEntity
  8
VHH-025
100
AcDbLine
 10
273.964391
 20
557.454525
 30
0.0
 11
275.019995
 21
583.920205
 31
0.0
  0
LINE
  5
110E
100
AcDbEntity
  8
VHH-025
100
AcDbLine
 10
298.305976
 20
587.24451
 30
0.0
 11
298.281929
 21
554.456147
 31
0.0
  0
LINE
  5
110F
100
AcDbEntity
  8
VHH-025
100
AcDbLine
 10
297.607056
 20
587.205642
 30
0.0
 11
297.58606
 21
554.53208
 31
0.0
  0
LINE
  5
1110
100
AcDbEntity
  8
VHH-025
100
AcDbLine
 10
289.74064
 20
585.941054
 30
0.0
 11
289.601686
 21
554.630639
 31
0.0
  0
LINE
  5
1111
100
AcDbEntity
  8
VHH-025
100
AcDbLine
 10
288.978918
 20
584.813646
 30
0.0
 11
287.925069
 21
558.017127
 31
0.0
  0
LINE
  5
1112
100
AcDbEntity
  8
VHH-025
100
AcDbLine
 10
312.392825
 20
610.719456
 30
0.0
 11
312.392825
 21
543.217767
 31
0.0
  0
LINE
  5
1113
100
AcDbEntity
  8
VHH-025
100
AcDbLine
 10
392.395016
 20
610.719456
 30
0.0
 11
392.395016
 21
543.217767
 31
0.0
  0
LINE
  5
1114
100
AcDbEntity
  8
VHH-025
100
AcDbLine
 10
158.895017
 20
604.476283
 30
0.0
 11
158.895017
 21
558.396587
 31
0.0
  0
LINE
  5
1115
100
AcDbEntity
  8
VHH-025
100
AcDbLine
 10
220.409975
 20
604.207869
 30
0.0
 11
222.689497
 21
523.0
 31
0.0
  0
LINE
  5
1116
100
AcDbEntity
  8
VHH-025
100
AcDbLine
 10
143.741738
 20
579.351541
 30
0.0
 11
140.541738
 21
573.751541
 31
0.0
  0
LINE
  5
1117
100
AcDbEntity
  8
VHH-025
100
AcDbLine
 10
143.791738
 20
576.001541
 30
0.0
 11
143.791738
 21
574.701541
 31
0.0
  0
LINE
  5
1118
100
AcDbEntity
  8
VHH-025
100
AcDbLine
 10
145.491738
 20
576.001541
 30
0.0
 11
145.491738
 21
574.701541
 31
0.0
  0
LINE
  5
1119
100
AcDbEntity
  8
VHH-025
100
AcDbLine
 10
85.892826
 20
604.476283
 30
0.0
 11
85.892826
 21
558.396587
 31
0.0
  0
SPLINE
  5
111A
100
AcDbEntity
  8
VHH-025
100
AcDbSpline
210
0.0
220
0.0
230
1.0
 70
    11
 71
     3
 72
    42
 73
    38
 74
     0
 42
0.0000001
 43
0.0000001
 40
0.0
 40
0.0
 40
0.0
 40
0.0
 40
0.2020226795172709
 40
0.2020226795172709
 40
0.6060680385518129
 40
0.6060680385518129
 40
1.010113397586354
 40
1.010113397586354
 40
1.414158756620896
 40
1.414158756620896
 40
1.774897046269892
 40
1.774897046269892
 40
2.130089007588556
 40
2.130089007588556
 40
2.471304605639319
 40
2.471304605639319
 40
2.812520203690082
 40
2.812520203690082
 40
3.071352036382359
 40
3.071352036382359
 40
3.330183869074637
 40
3.330183869074637
 40
3.713842095834065
 40
3.713842095834065
 40
4.097500322593494
 40
4.097500322593494
 40
4.481158549352922
 40
4.481158549352922
 40
4.864816776112351
 40
4.864816776112351
 40
5.24847500287178
 40
5.24847500287178
 40
5.632133229631208
 40
5.632133229631208
 40
6.015791456390637
 40
6.015791456390637
 40
6.283185307179586
 40
6.283185307179586
 40
6.283185307179586
 40
6.283185307179586
 10
94.64173842812215
 20
576.5515412051127
 30
0.0
 10
94.64173842812215
 20
576.1265904103557
 30
0.0
 10
94.69574851384914
 20
575.7013417411053
 30
0.0
 10
95.01484156848164
 20
574.4540960623417
 30
0.0
 10
95.44034669101984
 20
573.6609261076246
 30
0.0
 10
96.63693148786297
 20
572.2790038834737
 30
0.0
 10
97.40934469721015
 20
571.6898772556833
 30
0.0
 10
99.17325544800497
 20
570.8036900308015
 30
0.0
 10
100.1659469918204
 20
570.5063473105192
 30
0.0
 10
102.105054674088
 20
570.261463797764
 30
0.0
 10
103.0457179327013
 20
570.2794103879969
 30
0.0
 10
104.8458688046766
 20
570.5772000671204
 30
0.0
 10
105.7068182008297
 20
570.8538852360825
 30
0.0
 10
107.2288664384313
 20
571.6154870712188
 30
0.0
 10
107.8958717175737
 20
572.0932424149132
 30
0.0
 10
108.9972643052387
 20
573.2038874729615
 30
0.0
 10
109.4297235862595
 20
573.8380687966865
 30
0.0
 10
109.9381583502918
 20
575.0281355352208
 30
0.0
 10
110.0744930813252
 20
575.5651042948884
 30
0.0
 10
110.169155345
 20
576.6515718378705
 30
0.0
 10
110.12896446806
 20
577.2005818618644
 30
0.0
 10
109.8134491438386
 20
578.5259645520973
 30
0.0
 10
109.4319864237595
 20
579.2857013668763
 30
0.0
 10
108.3510086975838
 20
580.6293372309355
 30
0.0
 10
107.6496136554651
 20
581.2131430500449
 30
0.0
 10
106.0326445927212
 20
582.1273077646028
 30
0.0
 10
105.1157830140446
 20
582.456587207751
 30
0.0
 10
103.1977017468125
 20
582.8183942675504
 30
0.0
 10
102.1959442237648
 20
582.849393691541
 30
0.0
 10
100.2488362174526
 20
582.6106613921829
 30
0.0
 10
99.30372449007791
 20
582.3392525322406
 30
0.0
 10
97.60341910909483
 20
581.5317625366652
 30
0.0
 10
96.8491290744023
 20
580.9939434926445
 30
0.0
 10
95.64057441967817
 20
579.7259033320242
 30
0.0
 10
95.18815996244574
 20
578.9936092132511
 30
0.0
 10
94.73627363077776
 20
577.6767025084437
 30
0.0
 10
94.64173842812215
 20
577.1139989929078
 30
0.0
 10
94.64173842812215
 20
576.5515412051127
 30
0.0
  0
LINE
  5
111B
100
AcDbEntity
  8
VHH-025
100
AcDbLine
 10
61.685993
 20
587.846433
 30
0.0
 11
61.66373
 21
553.200051
 31
0.0
  0
LINE
  5
111C
100
AcDbEntity
  8
VHH-025
100
AcDbLine
 10
102.568515
 20
573.374765
 30
0.0
 11
105.568515
 21
576.374765
 31
0.0
  0
LINE
  5
111D
100
AcDbEntity
  8
VHH-025
100
AcDbLine
 10
102.214962
 20
573.374765
 30
0.0
 11
99.214962
 21
576.374765
 31
0.0
  0
LINE
  5
111E
100
AcDbEntity
  8
VHH-025
100
AcDbLine
 10
59.740641
 20
585.941054
 30
0.0
 11
59.601687
 21
554.630639
 31
0.0
  0
LINE
  5
111F
100
AcDbEntity
  8
VHH-025
100
AcDbLine
 10
58.97892
 20
584.813646
 30
0.0
 11
57.92507
 21
558.017127
 31
0.0
  0
LINE
  5
1120
100
AcDbEntity
  8
VHH-025
100
AcDbLine
 10
68.305977
 20
587.24451
 30
0.0
 11
68.28193
 21
554.456147
 31
0.0
  0
LINE
  5
1121
100
AcDbEntity
  8
VHH-025
100
AcDbLine
 10
67.607057
 20
587.205642
 30
0.0
 11
67.586061
 21
554.53208
 31
0.0
  0
LINE
  5
1122
100
AcDbEntity
  8
VHH-025
100
AcDbLine
 10
129.641738
 20
571.551541
 30
0.0
 11
129.641738
 21
581.551541
 31
0.0
  0
LINE
  5
1123
100
AcDbEntity
  8
VHH-025
100
AcDbLine
 10
120.26362
 20
573.408215
 30
0.0
 11
120.791736
 21
576.048792
 31
0.0
  0
LINE
  5
1124
100
AcDbEntity
  8
VHH-025
100
AcDbLine
 10
126.46362
 20
573.408215
 30
0.0
 11
126.991736
 21
576.048792
 31
0.0
  0
LINE
  5
1125
100
AcDbEntity
  8
VHH-025
100
AcDbLine
 10
123.71727
 20
576.107147
 30
0.0
 11
123.188631
 21
573.463956
 31
0.0
  0
LINE
  5
1126
100
AcDbEntity
  8
VHH-025
100
AcDbLine
 10
115.141738
 20
571.551541
 30
0.0
 11
115.141738
 21
581.551541
 31
0.0
  0
LINE
  5
1127
100
AcDbEntity
  8
VHH-025
100
AcDbLine
 10
117.51727
 20
576.107147
 30
0.0
 11
116.988631
 21
573.463956
 31
0.0
  0
SPLINE
  5
1128
100
AcDbEntity
  8
VHH-025
100
AcDbSpline
210
0.0
220
0.0
230
1.0
 70
    11
 71
     3
 72
    42
 73
    38
 74
     0
 42
0.0000001
 43
0.0000001
 40
0.0
 40
0.0
 40
0.0
 40
0.0
 40
0.2020226795177207
 40
0.2020226795177207
 40
0.6060680385531623
 40
0.6060680385531623
 40
1.010113397588603
 40
1.010113397588603
 40
1.414158756624045
 40
1.414158756624045
 40
1.774897046242743
 40
1.774897046242743
 40
2.130089007394168
 40
2.130089007394168
 40
2.471304605574108
 40
2.471304605574108
 40
2.812520203754048
 40
2.812520203754048
 40
3.071352036479815
 40
3.071352036479815
 40
3.330183869205582
 40
3.330183869205582
 40
3.713842095799154
 40
3.713842095799154
 40
4.097500322392726
 40
4.097500322392726
 40
4.481158548986298
 40
4.481158548986298
 40
4.86481677557987
 40
4.86481677557987
 40
5.248475002173442
 40
5.248475002173442
 40
5.632133228767014
 40
5.632133228767014
 40
6.015791455360586
 40
6.015791455360586
 40
6.283185307179586
 40
6.283185307179586
 40
6.283185307179586
 40
6.283185307179586
 10
134.6417384281221
 20
576.5515412051118
 30
0.0
 10
134.6417384281221
 20
576.1265904103538
 30
0.0
 10
134.6957485138491
 20
575.7013417411026
 30
0.0
 10
135.0148415684834
 20
574.4540960623362
 30
0.0
 10
135.4403466910234
 20
573.6609261076182
 30
0.0
 10
136.6369314878711
 20
572.2790038834655
 30
0.0
 10
137.4093446972219
 20
571.6898772556751
 30
0.0
 10
139.1732554480231
 20
570.8036900307943
 30
0.0
 10
140.1659469918413
 20
570.5063473105138
 30
0.0
 10
142.1050546740352
 20
570.261463797773
 30
0.0
 10
143.0457179325676
 20
570.2794103879959
 30
0.0
 10
144.8458688040564
 20
570.5772000669985
 30
0.0
 10
145.7068181998274
 20
570.8538852357505
 30
0.0
 10
147.2288664375273
 20
571.6154870706059
 30
0.0
 10
147.8958717170053
 20
572.0932424144148
 30
0.0
 10
148.997264305176
 20
573.2038874728241
 30
0.0
 10
149.4297235863659
 20
573.8380687967955
 30
0.0
 10
149.9381583504418
 20
575.0281355356801
 30
0.0
 10
150.0744930814389
 20
575.5651042954268
 30
0.0
 10
150.1691553449936
 20
576.6515718385581
 30
0.0
 10
150.1289644679718
 20
577.2005818626212
 30
0.0
 10
149.8134491435967
 20
578.5259645525429
 30
0.0
 10
149.431986423644
 20
579.2857013669663
 30
0.0
 10
148.351008697994
 20
580.6293372304772
 30
0.0
 10
147.6496136562736
 20
581.2131430493927
 30
0.0
 10
146.032644594451
 20
582.1273077638197
 30
0.0
 10
145.1157830162992
 20
582.456587207027
 30
0.0
 10
143.1977017500567
 20
582.8183942672366
 30
0.0
 10
142.1959442274765
 20
582.8493936915702
 30
0.0
 10
140.2488362218482
 20
582.610661393147
 30
0.0
 10
139.303724494699
 20
582.3392525337912
 30
0.0
 10
137.6034191137587
 20
581.5317625395237
 30
0.0
 10
136.8491290788988
 20
580.9939434962243
 30
0.0
 10
135.640574423347
 20
579.7259033370137
 30
0.0
 10
135.1881599654716
 20
578.9936092189345
 30
0.0
 10
134.7362736315126
 20
577.676702512771
 30
0.0
 10
134.6417384281221
 20
577.1139989950752
 30
0.0
 10
134.6417384281221
 20
576.5515412051118
 30
0.0
  0
LINE
  5
1129
100
AcDbEntity
  8
VHH-025
100
AcDbLine
 10
82.392826
 20
610.719456
 30
0.0
 11
82.392826
 21
543.217767
 31
0.0
  0
LINE
  5
112A
100
AcDbEntity
  8
VHH-025
100
AcDbLine
 10
162.395017
 20
610.719456
 30
0.0
 11
162.395017
 21
543.217767
 31
0.0
  0
LWPOLYLINE
  5
112B
100
AcDbEntity
  8
VHH-025
100
AcDbPolyline
 90
        3
 70
     0
 43
0.0
 10
227.531943
 20
585.5
 10
225.295501
 20
585.5
 10
227.579073
 20
541.885357
  0
LINE
  5
112C
100
AcDbEntity
  8
VHH-025
100
AcDbLine
 10
24.377869
 20
604.207869
 30
0.0
 11
22.098347
 21
523.0
 31
0.0
  0
LWPOLYLINE
  5
112D
100
AcDbEntity
  8
VHH-025
100
AcDbPolyline
 90
        3
 70
     0
 43
0.0
 10
17.255901
 20
585.5
 10
19.492342
 20
585.5
 10
17.20877
 20
541.885357
  0
LINE
  5
112E
100
AcDbEntity
  8
VHH-025
100
AcDbLine
 10
42.636427
 20
553.141991
 30
0.0
 11
42.60337
 21
586.038518
 31
0.0
  0
LINE
  5
112F
100
AcDbEntity
  8
VHH-025
100
AcDbLine
 10
44.530324
 20
571.643345
 30
0.0
 11
44.573198
 21
585.247496
 31
0.0
  0
LINE
  5
1130
100
AcDbEntity
  8
VHH-025
100
AcDbLine
 10
43.964393
 20
557.454525
 30
0.0
 11
45.019996
 21
583.920205
 31
0.0
  0
LINE
  5
1135
100
AcDbEntity
  8
VHH-025
100
AcDbLine
 10
237.390651
 20
57.5
 30
0.0
 11
237.390651
 21
585.5
 31
0.0
  0
LINE
  5
1136
100
AcDbEntity
  8
VHH-025
100
AcDbLine
 10
467.390649
 20
57.5
 30
0.0
 11
467.390649
 21
585.5
 31
0.0
  0
LINE
  5
1137
100
AcDbEntity
  8
VHH-025
100
AcDbLine
 10
7.390652
 20
57.5
 30
0.0
 11
7.390652
 21
585.5
 31
0.0
  0
LINE
  5
1138
100
AcDbEntity
  8
VHH-025
100
AcDbLine
 10
237.390651
 20
585.5
 30
0.0
 11
237.390651
 21
57.5
 31
0.0
  0
ELLIPSE
  5
1139
100
AcDbEntity
  8
VHH-025
100
AcDbEllipse
 10
50.878282
 20
563.452897
 30
0.0
 11
-0.5847090253523675
 21
-3.845560362166452
 31
0.0
210
0.0
220
0.0
230
1.0
 40
0.934504
 41
0.0
 42
6.283185307179586
  0
LINE
  5
113A
100
AcDbEntity
  8
VHH-025
100
AcDbLine
 10
11.944069
 20
522.0
 30
0.0
 11
232.848676
 21
522.0
 31
0.0
  0
LINE
  5
113B
100
AcDbEntity
  8
VHH-025
100
AcDbLine
 10
11.22181
 20
523.0
 30
0.0
 11
233.563843
 21
523.0
 31
0.0
  0
LINE
  5
113C
100
AcDbEntity
  8
VHH-025
100
AcDbLine
 10
59.128681
 20
554.133586
 30
0.0
 11
45.0013
 21
553.369907
 31
0.0
  0
LINE
  5
113D
100
AcDbEntity
  8
VHH-025
100
AcDbLine
 10
66.604641
 20
552.753206
 30
0.0
 11
44.31485
 21
551.606981
 31
0.0
  0
LINE
  5
113E
100
AcDbEntity
  8
VHH-025
100
AcDbLine
 10
56.643781
 20
556.903354
 30
0.0
 11
44.886244
 21
556.253986
 31
0.0
  0
LWPOLYLINE
  5
113F
100
AcDbEntity
  8
VHH-025
100
AcDbPolyline
 90
       10
 70
     0
 43
0.0
 10
7.552635
 20
20.5
 10
6.390652
 20
20.5
 42
-0.414214
 10
5.390652
 20
21.5
 10
5.390652
 20
56.5
 42
-0.414214
 10
6.390652
 20
57.5
 10
238.388476
 20
57.5
 42
-0.414214
 10
239.388476
 20
56.5
 10
239.388476
 20
21.5
 42
-0.414214
 10
238.388476
 20
20.5
 10
237.226493
 20
20.5
  0
CIRCLE
  5
1140
100
AcDbEntity
  8
VHH-025
100
AcDbCircle
 10
47.392826
 20
77.5
 30
0.0
 40
11.0
  0
LINE
  5
1141
100
AcDbEntity
  8
VHH-025
100
AcDbLine
 10
11.821171
 20
59.5
 30
0.0
 11
232.971574
 21
59.5
 31
0.0
  0
LINE
  5
1142
100
AcDbEntity
  8
VHH-025
100
AcDbLine
 10
1.580954
 20
0.0
 30
0.0
 11
122.389564
 21
0.0
 31
0.0
  0
LINE
  5
1143
100
AcDbEntity
  8
VHH-025
100
AcDbLine
 10
8.539386
 20
55.140004
 30
0.0
 11
122.389564
 21
55.140004
 31
0.0
  0
CIRCLE
  5
1144
100
AcDbEntity
  8
VHH-025
100
AcDbCircle
 10
47.392826
 20
77.5
 30
0.0
 40
10.0
  0
LINE
  5
1145
100
AcDbEntity
  8
VHH-025
100
AcDbLine
 10
12.229406
 20
386.5
 30
0.0
 11
232.563338
 21
386.5
 31
0.0
  0
LINE
  5
1146
100
AcDbEntity
  8
VHH-025
100
AcDbLine
 10
12.001594
 20
387.5
 30
0.0
 11
232.79115
 21
387.5
 31
0.0
  0
LINE
  5
1147
100
AcDbEntity
  8
VHH-025
100
AcDbLine
 10
16.292826
 20
86.777314
 30
0.0
 11
16.292826
 21
367.849173
 31
0.0
  0
SPLINE
  5
114A
100
AcDbEntity
  8
VHH-025
100
AcDbSpline
210
0.0
220
0.0
230
1.0
 70
     8
 71
     3
 72
    21
 73
    17
 74
    15
 42
0.0000001
 43
0.0000001
 44
0.0000000001
 40
0.0
 40
0.0
 40
0.0
 40
0.0
 40
20.54239158430153
 40
61.59039768144527
 40
82.07172333944729
 40
125.296585761799
 40
169.1286553754399
 40
184.7551054222645
 40
220.1335303680933
 40
256.6699875994239
 40
282.1667103634467
 40
297.6736575699719
 40
311.1983593231724
 40
319.2874834073422
 40
322.6453315890985
 40
326.0031797708557
 40
326.0031797708557
 40
326.0031797708557
 40
326.0031797708557
 10
22.25879736856768
 20
386.0016124384083
 30
0.0
 10
22.25947993289752
 20
379.1541486149117
 30
0.0
 10
22.26152640389121
 20
358.6240161681741
 30
0.0
 10
22.26346633481062
 20
331.2667749886045
 30
0.0
 10
22.25965339930067
 20
296.3487103902128
 30
0.0
 10
22.25205674925589
 20
260.5026253076812
 30
0.0
 10
22.23638829941814
 20
226.2748336879518
 30
0.0
 10
22.21155740487323
 20
194.6625289115612
 30
0.0
 10
22.18061669703601
 20
165.48209716402
 30
0.0
 10
22.12438042651198
 20
133.0116182822629
 30
0.0
 10
22.06645310911035
 20
107.1649498428382
 30
0.0
 10
22.08725423342349
 20
88.9888094972658
 30
0.0
 10
22.05154241280514
 20
76.61524844808504
 30
0.0
 10
22.05313105767222
 20
68.29135349958909
 30
0.0
 10
22.0518763617421
 20
63.35641376054436
 30
0.0
 10
22.05145335211399
 20
61.11784832246915
 30
0.0
 10
22.05124184729993
 20
59.99856560343141
 30
0.0
 11
22.25879736856768
 21
386.0016124384083
 31
0.0
 11
22.2607793545385
 21
365.4592209497204
 31
0.0
 11
22.26230842761379
 21
324.4112148810563
 31
0.0
 11
22.26025576284882
 21
303.9298893259147
 31
0.0
 11
22.25034088885149
 21
260.7050280406947
 31
0.0
 11
22.22855468130092
 21
216.8729638413415
 31
0.0
 11
22.21629040800326
 21
201.2465186072676
 31
0.0
 11
22.17712977315477
 21
165.8681153350407
 31
0.0
 11
22.11435407225144
 21
129.3317120332894
 31
0.0
 11
22.0768822247146
 21
103.8350168049646
 31
0.0
 11
22.0768822247146
 21
88.32806959843948
 31
0.0
 11
22.0549933127877
 21
74.80338555819071
 31
0.0
 11
22.0525839461452
 21
66.71426183283893
 31
0.0
 11
22.05191289672256
 21
63.35641371813562
 31
0.0
 11
22.05124184729993
 21
59.99856560343141
 31
0.0
  0
LINE
  5
118C
100
AcDbEntity
  8
VHH-025
100
AcDbLine
 10
7.389564
 20
0.0
 30
0.0
 11
7.839074
 21
56.508727
 31
0.0
  0
LINE
  5
118D
100
AcDbEntity
  8
VHH-025
100
AcDbLine
 10
8.108643
 20
0.0
 30
0.0
 11
8.539386
 21
55.140004
 31
0.0
  0
LINE
  5
118E
100
AcDbEntity
  8
VHH-025
100
AcDbLine
 10
0.0
 20
1.0
 30
0.0
 11
1.722356
 21
39.559818
 31
0.0
  0
LINE
  5
118F
100
AcDbEntity
  8
VHH-025
100
AcDbLine
 10
7.397519
 20
1.0
 30
0.0
 11
0.0
 21
1.0
 31
0.0
  0
LINE
  5
1190
100
AcDbEntity
  8
VHH-025
100
AcDbLine
 10
1.580954
 20
0.0
 30
0.0
 11
1.580954
 21
1.0
 31
0.0
  0
INSERT
  5
1191
100
AcDbEntity
  8
VHH-050
100
AcDbBlockReference
  2
A$C32063EEB
 10
-8.838839
 20
-8.838837
 30
0.0
  0
SPLINE
  5
1192
100
AcDbEntity
  8
VHH-025
100
AcDbSpline
210
0.0
220
0.0
230
1.0
 70
     8
 71
     3
 72
    12
 73
     8
 74
     6
 42
0.0000001
 43
0.0000001
 44
0.0000000001
 40
0.0
 40
0.0
 40
0.0
 40
0.0
 40
0.6338343735442976
 40
1.802514005420646
 40
3.392650738409886
 40
4.455110963274958
 40
5.521960543991837
 40
5.521960543991837
 40
5.521960543991837
 40
5.521960543991837
 10
13.9375609060271
 20
81.93126068645325
 30
0.0
 10
14.00293595225438
 20
82.13533140521898
 30
0.0
 10
14.18885113979895
 20
82.71567280673464
 30
0.0
 10
15.08642718902038
 20
83.46695482398695
 30
0.0
 10
15.82287931158578
 20
84.52051896117147
 30
0.0
 10
16.22532614827714
 20
85.71072089337002
 30
0.0
 10
16.27029530609947
 20
86.42129480595972
 30
0.0
 10
16.29282623468589
 20
86.77731415022208
 30
0.0
 11
13.9375609060271
 21
81.93126068645325
 31
0.0
 11
14.16966407984182
 21
82.52106923996143
 31
0.0
 11
14.93935815434997
 21
83.40049127381645
 31
0.0
 11
15.84400508318594
 21
84.70821783688279
 31
0.0
 11
16.17868620561512
 21
85.71658794537961
 31
0.0
 11
16.29282623468589
 21
86.77731415022208
 31
0.0
  0
ARC
  5
1193
100
AcDbEntity
  8
VHH-025
100
AcDbCircle
 10
2.746228
 20
39.487588
 30
0.0
 40
1.026416
100
AcDbArc
 50
80.52442
 51
175.964714
  0
LINE
  5
1194
100
AcDbEntity
  8
VHH-025
100
AcDbLine
 10
3.066349
 20
40.5
 30
0.0
 11
5.390652
 21
40.5
 31
0.0
  0
SPLINE
  5
1195
100
AcDbEntity
  8
VHH-025
100
AcDbSpline
210
0.0
220
0.0
230
-1.0
 70
     8
 71
     3
 72
    11
 73
     7
 74
     5
 42
0.0000001
 43
0.0000001
 44
0.0000000001
 40
0.0
 40
0.0
 40
0.0
 40
0.0
 40
0.1804692599197966
 40
0.4428351455144129
 40
0.5942569592578768
 40
0.8224153121630608
 40
0.8224153121630608
 40
0.8224153121630608
 40
0.8224153121630608
 10
11.3204419662934
 20
60.01097831338302
 30
0.0
 10
11.31546552480809
 20
59.95001506306254
 30
0.0
 10
11.30325434163888
 20
59.8004235490357
 30
0.0
 10
11.42534920010057
 20
59.61934792468889
 30
0.0
 10
11.6162125696884
 20
59.51472917137746
 30
0.0
 10
11.74422480611879
 20
59.50552965757752
 30
0.0
 10
11.82117050450324
 20
59.50000000639829
 30
0.0
 11
11.3204419662934
 21
60.01097831338302
 31
0.0
 11
11.32265149960403
 21
59.83052257992312
 31
0.0
 11
11.46342528670265
 21
59.60912113731319
 31
0.0
 11
11.59580905582151
 21
59.53561533243192
 31
0.0
 11
11.82117050450324
 21
59.50000000639829
 31
0.0
  0
ARC
  5
1196
100
AcDbEntity
  8
VHH-025
100
AcDbCircle
 10
8.839036
 20
56.5
 30
0.0
 40
1.0
100
AcDbArc
 50
90.000004
 51
179.500001
  0
LINE
  5
1197
100
AcDbEntity
  8
VHH-025
100
AcDbLine
 10
12.294521
 20
59.5
 30
0.0
 11
12.294521
 21
57.5
 31
0.0
  0
SPLINE
  5
1198
100
AcDbEntity
  8
VHH-025
100
AcDbSpline
210
0.0
220
0.0
230
1.0
 70
     8
 71
     3
 72
    14
 73
    10
 74
     8
 42
0.0000001
 43
0.0000001
 44
0.0000000001
 40
0.0
 40
0.0
 40
0.0
 40
0.0
 40
7.363011525299099
 40
13.39023931792507
 40
17.17017577582439
 40
20.43494269983906
 40
23.34546059114145
 40
24.87763384394688
 40
25.34800183036042
 40
25.34800183036042
 40
25.34800183036042
 40
25.34800183036042
 10
18.20912635667082
 20
59.99973156385294
 30
0.0
 10
18.19773049082457
 20
62.45408281737763
 30
0.0
 10
18.17700617572715
 20
66.91752152612117
 30
0.0
 10
18.11937747613988
 20
72.64027094157753
 30
0.0
 10
18.01956759809688
 20
76.99760117722451
 30
0.0
 10
17.82678653707275
 20
80.30917456319029
 30
0.0
 10
17.62889779676059
 20
82.87553779371235
 30
0.0
 10
17.27669477615345
 20
84.47991579856319
 30
0.0
 10
17.07571671350842
 20
85.11649849322012
 30
0.0
 10
17.02850987212696
 20
85.26602256513797
 30
0.0
 11
18.20912635667082
 21
59.99973156385294
 31
0.0
 11
18.16761613153812
 21
67.36262607775825
 31
0.0
 11
18.09598425564763
 21
73.38942819318891
 31
0.0
 11
17.99184476309619
 21
77.16792982635616
 31
0.0
 11
17.8090350866687
 21
80.42757454477941
 31
0.0
 11
17.50577505137334
 21
83.32225030323389
 31
0.0
 11
17.16696237309042
 21
84.81649286910032
 31
0.0
 11
17.02850987212696
 21
85.26602256513797
 31
0.0
  0
LINE
  5
1199
100
AcDbEntity
  8
VHH-025
100
AcDbLine
 10
11.320442
 20
60.010978
 30
0.0
 11
13.937561
 21
81.931261
 31
0.0
  0
LWPOLYLINE
  5
123C
100
AcDbEntity
  8
VHH-025
100
AcDbPolyline
 90
       11
 70
     0
 43
0.0
 10
22.079552
 20
521.508898
 10
22.114168
 20
488.970295
 10
22.126615
 20
472.101423
 10
22.127957
 20
469.982879
 10
22.129242
 20
467.862187
 10
22.130459
 20
465.739785
 10
22.131633
 20
463.615908
 10
22.133885
 20
459.364269
 10
22.136045
 20
455.107515
 10
22.149995
 20
421.039066
 10
22.158434
 20
388.001673
  0
LINE
  5
123D
100
AcDbEntity
  8
VHH-025
100
AcDbLine
 10
16.192827
 20
503.049161
 30
0.0
 11
16.192827
 21
406.706543
 31
0.0
  0
SPLINE
  5
123E
100
AcDbEntity
  8
VHH-025
100
AcDbSpline
210
0.0
220
0.0
230
-1.0
 70
     8
 71
     3
 72
    14
 73
    10
 74
     8
 42
0.0000001
 43
0.0000001
 44
0.0000000001
 40
0.0
 40
0.0
 40
0.0
 40
0.0
 40
6.66851083100014
 40
11.72772936545906
 40
13.61693149748113
 40
14.4338896124669
 40
16.23491697104791
 40
18.01579771733774
 40
19.12641922158227
 40
19.12641922158227
 40
19.12641922158227
 40
19.12641922158227
 10
11.31240155235445
 20
385.9851389888817
 30
0.0
 10
11.71399421529682
 20
383.796137840897
 30
0.0
 10
12.42026435348834
 20
379.9464008164176
 30
0.0
 10
13.27119800684895
 20
375.5117558875618
 30
0.0
 10
13.63723463293998
 20
372.9147307506465
 30
0.0
 10
14.38639766295242
 20
371.5844757337938
 30
0.0
 10
15.65865616421957
 20
370.7356692746973
 30
0.0
 10
16.18960521138214
 20
369.1740985358995
 30
0.0
 10
16.26418157120331
 20
368.2168504587346
 30
0.0
 10
16.29282623468589
 20
367.8491729654179
 30
0.0
 11
11.31240155235445
 21
385.9851389888817
 31
0.0
 11
12.5257816306057
 21
379.4279486234227
 31
0.0
 11
13.41273648513197
 21
374.44708491665
 31
0.0
 11
13.84482613830005
 21
372.6079592474088
 31
0.0
 11
14.25418991731021
 21
371.9009642982928
 31
0.0
 11
15.50503196552563
 21
370.6051658121177
 31
0.0
 11
16.16962715474892
 21
368.9529402019279
 31
0.0
 11
16.29282623468589
 21
367.8491729654179
 31
0.0
  0
SPLINE
  5
123F
100
AcDbEntity
  8
VHH-025
100
AcDbSpline
210
0.0
220
0.0
230
1.0
 70
     8
 71
     3
 72
    13
 73
     9
 74
     7
 42
0.0000001
 43
0.0000001
 44
0.0000000001
 40
0.0
 40
0.0
 40
0.0
 40
0.0
 40
3.191871827525061
 40
8.851217422000795
 40
13.24422149420587
 40
15.17417334972457
 40
16.19007197052217
 40
17.17775719291025
 40
17.17775719291025
 40
17.17775719291025
 40
17.17775719291025
 10
17.81532892686937
 20
386.0001236641583
 30
0.0
 10
17.81411448826968
 20
384.9361797640103
 30
0.0
 10
17.81074679035687
 20
381.9858110481325
 30
0.0
 10
17.74842934509645
 20
377.5707983032301
 30
0.0
 10
17.58001420714966
 20
373.5803650020897
 30
0.0
 10
17.35851295285815
 20
371.1409716258462
 30
0.0
 10
17.1002144314707
 20
369.8534213080438
 30
0.0
 10
16.91199590080779
 20
369.2124027867562
 30
0.0
 10
16.81921183192662
 20
368.8964067664719
 30
0.0
 11
17.81532892686937
 21
386.0001236641583
 31
0.0
 11
17.80670764890783
 21
382.8082634797338
 31
0.0
 11
17.7126802560042
 21
377.1496990498544
 31
0.0
 11
17.4961745179853
 21
372.7620333784734
 31
0.0
 11
17.28605958927255
 21
370.8435532817948
 31
0.0
 11
17.08379716973468
 21
369.8479931774409
 31
0.0
 11
16.81921183192662
 21
368.8964067664719
 31
0.0
  0
SPLINE
  5
1240
100
AcDbEntity
  8
VHH-025
100
AcDbSpline
210
0.0
220
0.0
230
1.0
 70
     8
 71
     3
 72
    10
 73
     6
 74
     4
 42
0.0000001
 43
0.0000001
 44
0.0000000001
 40
0.0
 40
0.0
 40
0.0
 40
0.0
 40
0.4164111744385085
 40
0.9163436501227788
 40
1.254422898232775
 40
1.254422898232775
 40
1.254422898232775
 40
1.254422898232775
 10
12.22940648651183
 20
386.5
 30
0.0
 10
12.09688928149414
 20
386.5057205132844
 30
0.0
 10
11.80527535083122
 20
386.5183089267216
 30
0.0
 10
11.28104951121284
 20
386.4217752936943
 30
0.0
 10
11.30338909094706
 20
386.110654512047
 30
0.0
 10
11.31240155235445
 20
385.9851389888817
 30
0.0
 11
12.22940648651183
 21
386.5
 31
0.0
 11
11.81299531207332
 21
386.4999999840056
 31
0.0
 11
11.34599829928083
 21
386.3215447507209
 31
0.0
 11
11.31240155235445
 21
385.9851389888817
 31
0.0
  0
SPLINE
  5
1241
100
AcDbEntity
  8
VHH-025
100
AcDbSpline
210
0.0
220
0.0
230
1.0
 70
     8
 71
     3
 72
    11
 73
     7
 74
     5
 42
0.0000001
 43
0.0000001
 44
0.0000000001
 40
0.0
 40
0.0
 40
0.0
 40
0.0
 40
0.3841279782305386
 40
0.6571598466979865
 40
0.8605649504657211
 40
1.063282916679442
 40
1.063282916679442
 40
1.063282916679442
 40
1.063282916679442
 10
12.00159440078005
 20
387.5
 30
0.0
 10
11.87526943244308
 20
387.5107752757317
 30
0.0
 10
11.65915474793388
 20
387.5292094407739
 30
0.0
 10
11.36858443372421
 20
387.618491017546
 30
0.0
 10
11.24800956900951
 20
387.8286078052202
 30
0.0
 10
11.23971729937351
 20
387.9643318170882
 30
0.0
 10
11.23557817958408
 20
388.0320790042978
 30
0.0
 11
12.00159440078005
 21
387.5
 31
0.0
 11
11.62064607675529
 21
387.5493221865108
 31
0.0
 11
11.37012738673092
 21
387.6578891573044
 31
0.0
 11
11.26389396436661
 21
387.8313483634929
 31
0.0
 11
11.23557817958408
 21
388.0320790042978
 31
0.0
  0
LINE
  5
1242
100
AcDbEntity
  8
VHH-025
100
AcDbLine
 10
13.390965
 20
387.499973
 30
0.0
 11
13.303336
 21
386.5
 31
0.0
  0
SPLINE
  5
1243
100
AcDbEntity
  8
VHH-025
100
AcDbSpline
210
0.0
220
0.0
230
1.0
 70
     8
 71
     3
 72
    13
 73
     9
 74
     7
 42
0.0000001
 43
0.0000001
 44
0.0000000001
 40
0.0
 40
0.0
 40
0.0
 40
0.0
 40
3.853325905628685
 40
7.478466687706884
 40
11.60106584746568
 40
14.07178639561743
 40
16.56731397739674
 40
17.70441817269797
 40
17.70441817269797
 40
17.70441817269797
 40
17.70441817269797
 10
17.71521409982597
 20
388.0001282562016
 30
0.0
 10
17.71312371848413
 20
389.2845892633653
 30
0.0
 10
17.70906674338979
 20
391.7774484424191
 30
0.0
 10
17.66862068020455
 20
395.6440826778792
 30
0.0
 10
17.56482720861704
 20
399.0500652145589
 30
0.0
 10
17.39885467299848
 20
402.0729481233017
 30
0.0
 10
17.15903142021541
 20
404.1030503465848
 30
0.0
 10
16.82530474209163
 20
405.2680429028109
 30
0.0
 10
16.72083998236212
 20
405.632714580116
 30
0.0
 11
17.71521409982597
 21
388.0001282562016
 31
0.0
 11
17.70309794693639
 21
391.8534351131529
 31
0.0
 11
17.65903967028225
 21
395.4783081534324
 31
0.0
 11
17.52715922519291
 21
399.5987973695628
 31
0.0
 11
17.37345466003353
 21
402.0647322701043
 31
0.0
 11
17.01552046346023
 21
404.5344571580917
 31
0.0
 11
16.72083998236212
 21
405.632714580116
 31
0.0
  0
SPLINE
  5
1244
100
AcDbEntity
  8
VHH-025
100
AcDbSpline
210
0.0
220
0.0
230
-1.0
 70
     8
 71
     3
 72
    15
 73
    11
 74
     9
 42
0.0000001
 43
0.0000001
 44
0.0000000001
 40
0.0
 40
0.0
 40
0.0
 40
0.0
 40
3.524230532082788
 40
10.56230341439629
 40
14.08777785911621
 40
14.66940041025858
 40
16.34667952900468
 40
17.98151335014002
 40
19.07167367623084
 40
19.63693971326625
 40
19.63693971326625
 40
19.63693971326625
 40
19.63693971326625
 10
11.23557817958408
 20
388.0320790042969
 30
0.0
 10
11.36496999192574
 20
389.2003657571216
 30
0.0
 10
11.75276402777266
 20
392.701782320544
 30
0.0
 10
12.74730463319864
 20
397.2914198702044
 30
0.0
 10
13.35084594142074
 20
400.9694239614212
 30
0.0
 10
14.11226570597989
 20
402.7671923705856
 30
0.0
 10
15.26302992643425
 20
403.5168504832748
 30
0.0
 10
15.88522577013167
 20
404.8982947199794
 30
0.0
 10
16.12422255675333
 20
405.9688291793042
 30
0.0
 10
16.17536376448444
 20
406.5187619337388
 30
0.0
 10
16.192826569516
 20
406.7065433510578
 30
0.0
 11
11.23557817958408
 21
388.0320790042969
 31
0.0
 11
11.66359433744673
 21
391.5302217989628
 31
0.0
 11
12.91817441694002
 21
398.455573683228
 31
0.0
 11
13.74473833857064
 21
401.8827827728273
 31
0.0
 11
13.99258655102039
 21
402.4089539004871
 31
0.0
 11
15.14459261743832
 21
403.6280302988798
 31
0.0
 11
15.89482860304542
 21
405.0805548558591
 31
0.0
 11
16.13238073370576
 21
406.1445184463082
 31
0.0
 11
16.192826569516
 21
406.7065433510578
 31
0.0
  0
SPLINE
  5
1245
100
AcDbEntity
  8
VHH-025
100
AcDbSpline
210
0.0
220
0.0
230
1.0
 70
     8
 71
     3
 72
    13
 73
     9
 74
     7
 42
0.0000001
 43
0.0000001
 44
0.0000000001
 40
0.0
 40
0.0
 40
0.0
 40
0.0
 40
5.157331242126769
 40
11.03348381863751
 40
14.61916662718399
 40
16.78242660352368
 40
17.8917438422128
 40
18.52503597702071
 40
18.52503597702071
 40
18.52503597702071
 40
18.52503597702071
 10
17.85320735389632
 20
523.0000001114849
 30
0.0
 10
17.94222313459201
 20
524.7169780778865
 30
0.0
 10
18.1326615861475
 20
528.3902439046975
 30
0.0
 10
18.26144551568427
 20
533.2602549082191
 30
0.0
 10
18.28256830301428
 20
537.1399900125468
 30
0.0
 10
18.03705301970209
 20
539.416761627001
 30
0.0
 10
17.75895604909185
 20
540.693236466302
 30
0.0
 10
17.55513915742322
 20
541.2376587941422
 30
0.0
 10
17.48106883713353
 20
541.4355105809391
 30
0.0
 11
17.85320735389632
 21
523.0000001114849
 31
0.0
 11
18.09988263614377
 21
528.1514287333475
 31
0.0
 11
18.25610594289082
 21
534.0255042674944
 31
0.0
 11
18.20102837279319
 21
537.6107640439649
 31
0.0
 11
17.94870062934478
 21
539.7592575708622
 31
0.0
 11
17.69274797654998
 21
540.8386430328637
 31
0.0
 11
17.48106883713353
 21
541.4355105809391
 31
0.0
  0
SPLINE
  5
1246
100
AcDbEntity
  8
VHH-025
100
AcDbSpline
210
0.0
220
0.0
230
-1.0
 70
     8
 71
     3
 72
    14
 73
    10
 74
     8
 42
0.0000001
 43
0.0000001
 44
0.0000000001
 40
0.0
 40
0.0
 40
0.0
 40
0.0
 40
0.246163639849165
 40
0.447354371503121
 40
0.8348519280353755
 40
1.027990166881475
 40
1.250840234266576
 40
1.448371555080496
 40
1.702783789879435
 40
1.702783789879435
 40
1.702783789879435
 40
1.702783789879435
 10
43.96439260813622
 20
557.4545248284594
 30
0.0
 10
43.96421650213699
 20
557.3722304303871
 30
0.0
 10
43.96389646385413
 20
557.2226764233437
 30
0.0
 10
44.02529031169046
 20
556.9491511673838
 30
0.0
 10
44.12852057565823
 20
556.710398162015
 30
0.0
 10
44.26327279639877
 20
556.4727114014274
 30
0.0
 10
44.44296686084964
 20
556.3639873895169
 30
0.0
 10
44.64874266240619
 20
556.2698163598695
 30
0.0
 10
44.80070198889454
 20
556.2596876389555
 30
0.0
 10
44.88624433454879
 20
556.2539858859572
 30
0.0
 11
43.96439260813622
 21
557.4545248284594
 31
0.0
 11
43.97392239204418
 21
557.2085457220246
 31
0.0
 11
44.01561188816231
 21
557.0117216980415
 31
0.0
 11
44.16340820797358
 21
556.6535170021361
 31
0.0
 11
44.26951503166765
 21
556.4921363302137
 31
0.0
 11
44.4518067024228
 21
556.3639493601003
 31
0.0
 11
44.63409837317704
 21
556.2878680254898
 31
0.0
 11
44.88624433454879
 21
556.2539858859572
 31
0.0
  0
SPLINE
  5
1247
100
AcDbEntity
  8
VHH-025
100
AcDbSpline
210
0.0
220
0.0
230
1.0
 70
     8
 71
     3
 72
    12
 73
     8
 74
     6
 42
0.0000001
 43
0.0000001
 44
0.0000000001
 40
0.0
 40
0.0
 40
0.0
 40
0.0
 40
0.6333227639766334
 40
1.258591262610114
 40
1.575282577617496
 40
2.212493335719704
 40
2.538190609335984
 40
2.538190609335984
 40
2.538190609335984
 40
2.538190609335984
 10
42.63642729391631
 20
553.141991323112
 30
0.0
 10
42.66227530032462
 20
552.9295174019109
 30
0.0
 10
42.71364259180979
 20
552.5072716909289
 30
0.0
 10
43.04327432202771
 20
552.0669763418811
 30
0.0
 10
43.46663412518267
 20
551.7539308137645
 30
0.0
 10
43.88452151199484
 20
551.6053710274953
 30
0.0
 10
44.20608382749912
 20
551.6065737614107
 30
0.0
 10
44.31485015409271
 20
551.6069805782035
 30
0.0
 11
42.63642729391631
 21
553.141991323112
 31
0.0
 11
42.76765081200847
 21
552.5224123437474
 31
0.0
 11
43.13226538727394
 21
552.014458697351
 31
0.0
 11
43.38685538104164
 21
551.8261044458077
 31
0.0
 11
43.98936335479993
 21
551.6186877352975
 31
0.0
 11
44.31485015409271
 21
551.6069805782035
 31
0.0
  0
SPLINE
  5
1248
100
AcDbEntity
  8
VHH-025
100
AcDbSpline
210
0.0
220
0.0
230
-1.0
 70
     8
 71
     3
 72
    17
 73
    13
 74
    11
 42
0.0000001
 43
0.0000001
 44
0.0000000001
 40
0.0
 40
0.0
 40
0.0
 40
0.0
 40
0.5545798661037315
 40
1.653562178450281
 40
2.750923934510204
 40
3.848571212511028
 40
4.674193321130027
 40
5.488636099266271
 40
8.524172564826855
 40
12.84394436806068
 40
16.51294489443541
 40
20.18194542081104
 40
20.18194542081104
 40
20.18194542081104
 40
20.18194542081104
 10
17.20876980517823
 20
541.8853574984495
 30
0.0
 10
17.18085999974316
 20
541.7026698175614
 30
0.0
 10
17.09764277262028
 20
541.1579593835025
 30
0.0
 10
16.86331143921053
 20
540.2646237353082
 30
0.0
 10
16.3319763394165
 20
539.29104811889
 30
0.0
 10
15.6629628489289
 20
538.5299702545466
 30
0.0
 10
14.94545764558915
 20
537.9564970038739
 30
0.0
 10
14.0722318552254
 20
536.6443091403933
 30
0.0
 10
13.25777749443378
 20
534.0215989233558
 30
0.0
 10
12.20542450138427
 20
530.4990277768239
 30
0.0
 10
11.77567229797779
 20
526.6252619162188
 30
0.0
 10
11.40643059656042
 20
524.208420738892
 30
0.0
 10
11.22180974585171
 20
523.0000001502284
 30
0.0
 11
17.20876980517823
 21
541.8853574984495
 31
0.0
 11
17.11855711398584
 21
541.3381642069744
 31
0.0
 11
16.82131440621469
 21
540.2801429900192
 31
0.0
 11
16.29900871058362
 21
539.3150525362407
 31
0.0
 11
15.5772800989007
 21
538.4880474830634
 31
0.0
 11
14.9738325323824
 21
537.9245735256318
 31
0.0
 11
14.50204981064962
 21
537.2606924351248
 31
0.0
 11
13.39110893292854
 21
534.4357513738004
 31
0.0
 11
12.28016805520746
 21
530.2612767004766
 31
0.0
 11
11.75098890052959
 21
526.630638425353
 31
0.0
 11
11.22180974585171
 21
523.0000001502284
 31
0.0
  0
SPLINE
  5
1249
100
AcDbEntity
  8
VHH-025
100
AcDbSpline
210
0.0
220
0.0
230
1.0
 70
     8
 71
     3
 72
    12
 73
     8
 74
     6
 42
0.0000001
 43
0.0000001
 44
0.0000000001
 40
0.0
 40
0.0
 40
0.0
 40
0.0
 40
0.280006437082199
 40
0.4549869708025066
 40
0.6605144582107635
 40
0.8644346373821104
 40
1.061580118983834
 40
1.061580118983834
 40
1.061580118983834
 40
1.061580118983834
 10
11.94406873388197
 20
521.9999999999999
 30
0.0
 10
11.85035263630678
 20
522.0006450227599
 30
0.0
 10
11.69807183949547
 20
522.0016931306346
 30
0.0
 10
11.48175586192982
 20
521.9673691095022
 30
0.0
 10
11.29094914614002
 20
521.8877935067771
 30
0.0
 10
11.20426360389774
 20
521.6878236503903
 30
0.0
 10
11.20436055911825
 20
521.5542346132033
 30
0.0
 10
11.20440821785723
 20
521.4885683703687
 30
0.0
 11
11.94406873388197
 21
521.9999999999999
 31
0.0
 11
11.66416053742977
 21
521.9925833723063
 31
0.0
 11
11.49184128619708
 21
521.9621816809776
 31
0.0
 11
11.30936369340452
 21
521.8676117269279
 31
0.0
 11
11.21813731551992
 21
521.6852352277528
 31
0.0
 11
11.20440821785723
 21
521.4885683703687
 31
0.0
  0
SPLINE
  5
124A
100
AcDbEntity
  8
VHH-025
100
AcDbSpline
210
0.0
220
0.0
230
-1.0
 70
     8
 71
     3
 72
    17
 73
    13
 74
    11
 42
0.0000001
 43
0.0000001
 44
0.0000000001
 40
0.0
 40
0.0
 40
0.0
 40
0.0
 40
3.506197438003689
 40
7.012394876007379
 40
10.46871649040251
 40
12.72673424276973
 40
14.19768025676247
 40
14.7442154355653
 40
16.1367507362761
 40
17.24703645469927
 40
18.36080100071135
 40
19.47142540553352
 40
19.47142540553352
 40
19.47142540553352
 40
19.47142540553352
 10
11.20440821785723
 20
521.4885683703687
 30
0.0
 10
11.33734446820038
 20
520.3282953011312
 30
0.0
 10
11.60321696888666
 20
518.0077491626561
 30
0.0
 10
11.75828582932158
 20
514.5015033944238
 30
0.0
 10
12.74085906011482
 20
511.5599829006959
 30
0.0
 10
13.30588068091937
 20
509.2512031281687
 30
0.0
 10
13.6262722022153
 20
507.8311775579578
 30
0.0
 10
14.29729886289191
 20
506.900054346087
 30
0.0
 10
15.11712325634558
 20
506.2717188546659
 30
0.0
 10
15.7355718221834
 20
505.2176678954957
 30
0.0
 10
16.12206736041902
 20
504.1642018239223
 30
0.0
 10
16.16926237468129
 20
503.4204914228296
 30
0.0
 10
16.192826569516
 20
503.0491611654733
 30
0.0
 11
11.20440821785723
 21
521.4885683703687
 31
0.0
 11
11.56271678551911
 21
518.0007272838793
 31
0.0
 11
11.92102535318099
 21
514.5128861973899
 31
0.0
 11
12.81017025551682
 21
511.1728891248185
 31
0.0
 11
13.36271472497355
 21
508.9835196312706
 31
0.0
 11
13.82621857454251
 21
507.5875087582772
 31
0.0
 11
14.14192404667119
 21
507.1413801260005
 31
0.0
 11
15.11719495432498
 21
506.1473976209181
 31
0.0
 11
15.70443562037053
 21
505.2051223019816
 31
0.0
 11
16.06962850120089
 21
504.1529314334866
 31
0.0
 11
16.192826569516
 21
503.0491611654733
 31
0.0
  0
SPLINE
  5
124B
100
AcDbEntity
  8
VHH-025
100
AcDbSpline
210
0.0
220
0.0
230
1.0
 70
     8
 71
     3
 72
    13
 73
     9
 74
     7
 42
0.0000001
 43
0.0000001
 44
0.0000000001
 40
0.0
 40
0.0
 40
0.0
 40
0.0
 40
4.583810445734231
 40
8.698219770199523
 40
10.96932457602888
 40
14.6869705347378
 40
16.50338991512481
 40
17.39425123552253
 40
17.39425123552253
 40
17.39425123552253
 40
17.39425123552253
 10
17.82829499464696
 20
521.5009829301298
 30
0.0
 10
17.82261736310677
 20
519.9730920281563
 30
0.0
 10
17.81184351294533
 20
517.0737725629237
 30
0.0
 10
17.74736124269934
 20
513.4172104798525
 30
0.0
 10
17.60191558285576
 20
510.0531749913645
 30
0.0
 10
17.47438457240593
 20
507.4517484158803
 30
0.0
 10
17.10898357055911
 20
505.334286259115
 30
0.0
 10
16.8464018949794
 20
504.4704923239788
 30
0.0
 10
16.75999642614442
 20
504.1862511644331
 30
0.0
 11
17.82829499464696
 21
521.5009829301298
 31
0.0
 11
17.80005427615378
 21
516.9172594803304
 31
0.0
 11
17.71394478079218
 21
512.8037513371445
 31
0.0
 11
17.62106641818809
 21
510.5345464876827
 31
0.0
 11
17.34209164072399
 21
506.8273825382675
 31
0.0
 11
17.00745216611812
 21
505.0420546167133
 31
0.0
 11
16.75999642614442
 21
504.1862511644331
 31
0.0
  0
LINE
  5
124C
100
AcDbEntity
  8
VHH-025
100
AcDbLine
 10
44.171455
 20
556.638215
 30
0.0
 11
45.88397
 21
553.417621
 31
0.0
  0
LINE
  5
124D
100
AcDbEntity
  8
VHH-025
100
AcDbLine
 10
13.33688
 20
523.0
 30
0.0
 11
13.196105
 21
522.0
 31
0.0
  0
LINE
  5
124E
100
AcDbEntity
  8
VHH-025
100
AcDbLine
 10
44.474314
 20
553.870754
 30
0.0
 11
44.481199
 21
556.055703
 31
0.0
  0
LINE
  5
124F
100
AcDbEntity
  8
VHH-025
100
AcDbLine
 10
424.690284
 20
312.732167
 30
0.0
 11
434.863776
 21
70.0
 31
0.0
  0
LINE
  5
1250
100
AcDbEntity
  8
VHH-025
100
AcDbLine
 10
228.499919
 20
86.777314
 30
0.0
 11
228.499919
 21
367.849173
 31
0.0
  0
LINE
  5
1251
100
AcDbEntity
  8
VHH-025
100
AcDbLine
 10
280.090532
 20
312.732167
 30
0.0
 11
269.91704
 21
70.0
 31
0.0
  0
SPLINE
  5
1254
100
AcDbEntity
  8
VHH-025
100
AcDbSpline
210
0.0
220
0.0
230
-1.0
 70
     8
 71
     3
 72
    21
 73
    17
 74
    15
 42
0.0000001
 43
0.0000001
 44
0.0000000001
 40
0.0
 40
0.0
 40
0.0
 40
0.0
 40
20.54239158430153
 40
61.59039768144527
 40
82.07172333944729
 40
125.296585761799
 40
169.1286553754399
 40
184.7551054222645
 40
220.1335303680933
 40
256.6699875994239
 40
282.1667103634467
 40
297.6736575699719
 40
311.1983593231724
 40
319.2874834073422
 40
322.6453315890985
 40
326.0031797708557
 40
326.0031797708557
 40
326.0031797708557
 40
326.0031797708557
 10
222.5339474817356
 20
386.0016124384083
 30
0.0
 10
222.5332649174057
 20
379.1541486149117
 30
0.0
 10
222.531218446412
 20
358.6240161681741
 30
0.0
 10
222.5292785154926
 20
331.2667749886045
 30
0.0
 10
222.5330914510026
 20
296.3487103902128
 30
0.0
 10
222.5406881010473
 20
260.5026253076812
 30
0.0
 10
222.5563565508851
 20
226.2748336879518
 30
0.0
 10
222.58118744543
 20
194.6625289115612
 30
0.0
 10
222.6121281532673
 20
165.48209716402
 30
0.0
 10
222.6683644237913
 20
133.0116182822629
 30
0.0
 10
222.7262917411929
 20
107.1649498428382
 30
0.0
 10
222.7054906168797
 20
88.9888094972658
 30
0.0
 10
222.7412024374981
 20
76.61524844808504
 30
0.0
 10
222.739613792631
 20
68.29135349958909
 30
0.0
 10
222.7408684885611
 20
63.35641376054436
 30
0.0
 10
222.7412914981893
 20
61.11784832246915
 30
0.0
 10
222.7415030030033
 20
59.99856560343141
 30
0.0
 11
222.5339474817356
 21
386.0016124384083
 31
0.0
 11
222.5319654957647
 21
365.4592209497204
 31
0.0
 11
222.5304364226894
 21
324.4112148810563
 31
0.0
 11
222.5324890874544
 21
303.9298893259147
 31
0.0
 11
222.5424039614517
 21
260.7050280406947
 31
0.0
 11
222.5641901690023
 21
216.8729638413415
 31
0.0
 11
222.5764544423
 21
201.2465186072676
 31
0.0
 11
222.6156150771485
 21
165.8681153350407
 31
0.0
 11
222.6783907780518
 21
129.3317120332894
 31
0.0
 11
222.7158626255886
 21
103.8350168049646
 31
0.0
 11
222.7158626255886
 21
88.32806959843948
 31
0.0
 11
222.7377515375156
 21
74.80338555819071
 31
0.0
 11
222.740160904158
 21
66.71426183283893
 31
0.0
 11
222.7408319535807
 21
63.35641371813562
 31
0.0
 11
222.7415030030033
 21
59.99856560343141
 31
0.0
  0
LINE
  5
1255
100
AcDbEntity
  8
VHH-025
100
AcDbLine
 10
255.492825
 20
511.7
 30
0.0
 11
255.492825
 21
57.5
 31
0.0
  0
LINE
  5
1256
100
AcDbEntity
  8
VHH-025
100
AcDbLine
 10
449.290114
 20
57.5
 30
0.0
 11
449.290114
 21
511.7
 31
0.0
  0
LINE
  5
1257
100
AcDbEntity
  8
VHH-025
100
AcDbLine
 10
352.390408
 20
70.0
 30
0.0
 11
434.863776
 21
70.0
 31
0.0
  0
LINE
  5
1258
100
AcDbEntity
  8
VHH-025
100
AcDbLine
 10
269.91704
 20
70.0
 30
0.0
 11
434.863776
 21
70.0
 31
0.0
  0
LWPOLYLINE
  5
1259
100
AcDbEntity
  8
VHH-025
100
AcDbPolyline
 90
       10
 70
     0
 43
0.0
 10
237.554809
 20
20.5
 10
236.392825
 20
20.5
 42
-0.414214
 10
235.392825
 20
21.5
 10
235.392825
 20
56.5
 42
-0.414214
 10
236.392825
 20
57.5
 10
468.390649
 20
57.5
 42
-0.414214
 10
469.390649
 20
56.5
 10
469.390649
 20
21.5
 42
-0.414214
 10
468.390649
 20
20.5
 10
467.228666
 20
20.5
  0
LINE
  5
125A
100
AcDbEntity
  8
VHH-025
100
AcDbLine
 10
352.390408
 20
57.5
 30
0.0
 11
429.140408
 21
57.5
 31
0.0
  0
LINE
  5
125B
100
AcDbEntity
  8
VHH-025
100
AcDbLine
 10
352.390408
 20
58.5
 30
0.0
 11
429.140408
 21
58.5
 31
0.0
  0
LINE
  5
125C
100
AcDbEntity
  8
VHH-025
100
AcDbLine
 10
466.241915
 20
55.140004
 30
0.0
 11
352.391737
 21
55.140004
 31
0.0
  0
LINE
  5
125D
100
AcDbEntity
  8
VHH-025
100
AcDbLine
 10
275.640408
 20
58.5
 30
0.0
 11
429.140408
 21
58.5
 31
0.0
  0
LINE
  5
125E
100
AcDbEntity
  8
VHH-025
100
AcDbLine
 10
473.200347
 20
0.0
 30
0.0
 11
352.391737
 21
0.0
 31
0.0
  0
LINE
  5
125F
100
AcDbEntity
  8
VHH-025
100
AcDbLine
 10
236.239742
 20
55.140004
 30
0.0
 11
122.389564
 21
55.140004
 31
0.0
  0
LINE
  5
1260
100
AcDbEntity
  8
VHH-025
100
AcDbLine
 10
243.198173
 20
0.0
 30
0.0
 11
122.389564
 21
0.0
 31
0.0
  0
INSERT
  5
1261
100
AcDbEntity
  8
VHH-050
100
AcDbBlockReference
  2
A$C7A7B4A19
 10
159.084613
 20
21.322331
 30
0.0
  0
INSERT
  5
1262
100
AcDbEntity
  8
VHH-050
100
AcDbBlockReference
  2
A$C605007EB
 10
109.863924
 20
7.429986
 30
0.0
  0
LINE
  5
1263
100
AcDbEntity
  8
VHH-025
100
AcDbLine
 10
237.391737
 20
0.0
 30
0.0
 11
237.841247
 21
56.508727
 31
0.0
  0
LINE
  5
1264
100
AcDbEntity
  8
VHH-025
100
AcDbLine
 10
238.110816
 20
0.0
 30
0.0
 11
238.541559
 21
55.140004
 31
0.0
  0
LINE
  5
1265
100
AcDbEntity
  8
VHH-025
100
AcDbLine
 10
236.670485
 20
0.0
 30
0.0
 11
236.239742
 21
55.140004
 31
0.0
  0
LINE
  5
1266
100
AcDbEntity
  8
VHH-025
100
AcDbLine
 10
237.389564
 20
0.0
 30
0.0
 11
236.940054
 21
56.508727
 31
0.0
  0
LINE
  5
1267
100
AcDbEntity
  8
VHH-025
100
AcDbLine
 10
231.583128
 20
0.0
 30
0.0
 11
352.391737
 21
0.0
 31
0.0
  0
LINE
  5
1268
100
AcDbEntity
  8
VHH-025
100
AcDbLine
 10
269.91704
 20
70.0
 30
0.0
 11
352.390408
 21
70.0
 31
0.0
  0
LINE
  5
1269
100
AcDbEntity
  8
VHH-025
100
AcDbLine
 10
238.541559
 20
55.140004
 30
0.0
 11
352.391737
 21
55.140004
 31
0.0
  0
LINE
  5
126A
100
AcDbEntity
  8
VHH-025
100
AcDbLine
 10
275.640408
 20
57.5
 30
0.0
 11
352.390408
 21
57.5
 31
0.0
  0
LINE
  5
126B
100
AcDbEntity
  8
VHH-025
100
AcDbLine
 10
275.640408
 20
58.5
 30
0.0
 11
352.390408
 21
58.5
 31
0.0
  0
SPLINE
  5
126C
100
AcDbEntity
  8
VHH-025
100
AcDbSpline
210
0.0
220
0.0
230
-1.0
 70
     8
 71
     3
 72
    12
 73
     8
 74
     6
 42
0.0000001
 43
0.0000001
 44
0.0000000001
 40
0.0
 40
0.0
 40
0.0
 40
0.0
 40
0.6338343735442976
 40
1.802514005420646
 40
3.392650738409886
 40
4.455110963274958
 40
5.521960543991837
 40
5.521960543991837
 40
5.521960543991837
 40
5.521960543991837
 10
230.8551839442761
 20
81.93126068645325
 30
0.0
 10
230.7898088980489
 20
82.13533140521898
 30
0.0
 10
230.6038937105043
 20
82.71567280673464
 30
0.0
 10
229.7063176612828
 20
83.46695482398695
 30
0.0
 10
228.9698655387175
 20
84.52051896117147
 30
0.0
 10
228.5674187020261
 20
85.71072089337002
 30
0.0
 10
228.5224495442038
 20
86.42129480595972
 30
0.0
 10
228.4999186156174
 20
86.77731415022208
 30
0.0
 11
230.8551839442761
 21
81.93126068645325
 31
0.0
 11
230.6230807704614
 21
82.52106923996143
 31
0.0
 11
229.8533866959532
 21
83.40049127381645
 31
0.0
 11
228.9487397671173
 21
84.70821783688279
 31
0.0
 11
228.6140586446881
 21
85.71658794537961
 31
0.0
 11
228.4999186156174
 21
86.77731415022208
 31
0.0
  0
LINE
  5
126D
100
AcDbEntity
  8
VHH-025
100
AcDbLine
 10
270.41704
 20
70.0
 30
0.0
 11
270.41704
 21
63.723368
 31
0.0
  0
LINE
  5
126E
100
AcDbEntity
  8
VHH-025
100
AcDbLine
 10
270.41704
 20
70.0
 30
0.0
 11
270.41704
 21
63.723368
 31
0.0
  0
SPLINE
  5
126F
100
AcDbEntity
  8
VHH-025
100
AcDbSpline
210
0.0
220
0.0
230
-1.0
 70
     8
 71
     3
 72
    11
 73
     7
 74
     5
 42
0.0000001
 43
0.0000001
 44
0.0000000001
 40
0.0
 40
0.0
 40
0.0
 40
0.0
 40
0.1804692599197966
 40
0.4428351455144129
 40
0.5942569592578768
 40
0.8224153121630608
 40
0.8224153121630608
 40
0.8224153121630608
 40
0.8224153121630608
 10
233.4723028840098
 20
60.01097831338302
 30
0.0
 10
233.4772793254952
 20
59.95001506306254
 30
0.0
 10
233.4894905086643
 20
59.8004235490357
 30
0.0
 10
233.3673956502026
 20
59.61934792468889
 30
0.0
 10
233.1765322806149
 20
59.51472917137746
 30
0.0
 10
233.0485200441844
 20
59.50552965757752
 30
0.0
 10
232.9715743458
 20
59.50000000639829
 30
0.0
 11
233.4723028840098
 21
60.01097831338302
 31
0.0
 11
233.4700933506992
 21
59.83052257992312
 31
0.0
 11
233.3293195636006
 21
59.60912113731319
 31
0.0
 11
233.1969357944817
 21
59.53561533243192
 31
0.0
 11
232.9715743458
 21
59.50000000639829
 31
0.0
  0
LINE
  5
1270
100
AcDbEntity
  8
VHH-025
100
AcDbLine
 10
275.640408
 20
58.5
 30
0.0
 11
275.640408
 21
57.5
 31
0.0
  0
LINE
  5
1271
100
AcDbEntity
  8
VHH-025
100
AcDbLine
 10
275.640408
 20
58.5
 30
0.0
 11
275.640408
 21
57.5
 31
0.0
  0
LINE
  5
1272
100
AcDbEntity
  8
VHH-025
100
AcDbLine
 10
232.691131
 20
57.5
 30
0.0
 11
232.691131
 21
59.5
 31
0.0
  0
ARC
  5
1273
100
AcDbEntity
  8
VHH-025
100
AcDbCircle
 10
235.940092
 20
56.5
 30
0.0
 40
1.0
100
AcDbArc
 50
0.499999
 51
89.999996
  0
SPLINE
  5
1274
100
AcDbEntity
  8
VHH-025
100
AcDbSpline
210
0.0
220
0.0
230
-1.0
 70
     8
 71
     3
 72
    14
 73
    10
 74
     8
 42
0.0000001
 43
0.0000001
 44
0.0000000001
 40
0.0
 40
0.0
 40
0.0
 40
0.0
 40
7.363011525299099
 40
13.39023931792507
 40
17.17017577582439
 40
20.43494269983906
 40
23.34546059114145
 40
24.87763384394688
 40
25.34800183036042
 40
25.34800183036042
 40
25.34800183036042
 40
25.34800183036042
 10
226.5836184936324
 20
59.99973156385294
 30
0.0
 10
226.5950143594786
 20
62.45408281737763
 30
0.0
 10
226.615738674576
 20
66.91752152612117
 30
0.0
 10
226.6733673741634
 20
72.64027094157753
 30
0.0
 10
226.7731772522064
 20
76.99760117722451
 30
0.0
 10
226.9659583132305
 20
80.30917456319029
 30
0.0
 10
227.1638470535426
 20
82.87553779371235
 30
0.0
 10
227.5160500741497
 20
84.47991579856319
 30
0.0
 10
227.7170281367948
 20
85.11649849322012
 30
0.0
 10
227.7642349781763
 20
85.26602256513797
 30
0.0
 11
226.5836184936324
 21
59.99973156385294
 31
0.0
 11
226.6251287187651
 21
67.36262607775825
 31
0.0
 11
226.6967605946556
 21
73.38942819318891
 31
0.0
 11
226.8009000872071
 21
77.16792982635616
 31
0.0
 11
226.9837097636346
 21
80.42757454477941
 31
0.0
 11
227.2869697989299
 21
83.32225030323389
 31
0.0
 11
227.6257824772128
 21
84.81649286910032
 31
0.0
 11
227.7642349781763
 21
85.26602256513797
 31
0.0
  0
ARC
  5
1275
100
AcDbEntity
  8
VHH-025
100
AcDbCircle
 10
275.640408
 20
63.723368
 30
0.0
 40
5.223368
100
AcDbArc
 50
180.0
 51
270.0
  0
ARC
  5
1276
100
AcDbEntity
  8
VHH-025
100
AcDbCircle
 10
275.640408
 20
63.723368
 30
0.0
 40
5.223368
100
AcDbArc
 50
180.0
 51
270.0
  0
LINE
  5
1277
100
AcDbEntity
  8
VHH-025
100
AcDbLine
 10
233.472303
 20
60.010978
 30
0.0
 11
230.855184
 21
81.931261
 31
0.0
  0
LINE
  5
127A
100
AcDbEntity
  8
VHH-025
100
AcDbLine
 10
466.672658
 20
0.0
 30
0.0
 11
466.241915
 21
55.140004
 31
0.0
  0
LINE
  5
127B
100
AcDbEntity
  8
VHH-025
100
AcDbLine
 10
467.391737
 20
0.0
 30
0.0
 11
466.942227
 21
56.508727
 31
0.0
  0
LINE
  5
127C
100
AcDbEntity
  8
VHH-025
100
AcDbLine
 10
474.781301
 20
1.0
 30
0.0
 11
473.058945
 21
39.559818
 31
0.0
  0
LINE
  5
127D
100
AcDbEntity
  8
VHH-025
100
AcDbLine
 10
473.200347
 20
0.0
 30
0.0
 11
473.200347
 21
1.0
 31
0.0
  0
LINE
  5
127E
100
AcDbEntity
  8
VHH-025
100
AcDbLine
 10
467.383783
 20
1.0
 30
0.0
 11
474.781301
 21
1.0
 31
0.0
  0
LINE
  5
127F
100
AcDbEntity
  8
VHH-025
100
AcDbLine
 10
434.363776
 20
70.0
 30
0.0
 11
434.363776
 21
63.723368
 31
0.0
  0
LINE
  5
1280
100
AcDbEntity
  8
VHH-025
100
AcDbLine
 10
434.363776
 20
70.0
 30
0.0
 11
434.363776
 21
63.723368
 31
0.0
  0
LINE
  5
1281
100
AcDbEntity
  8
VHH-025
100
AcDbLine
 10
471.714952
 20
40.5
 30
0.0
 11
469.390649
 21
40.5
 31
0.0
  0
ARC
  5
1282
100
AcDbEntity
  8
VHH-025
100
AcDbCircle
 10
472.035073
 20
39.487588
 30
0.0
 40
1.026416
100
AcDbArc
 50
4.035286
 51
99.47558
  0
LINE
  5
1283
100
AcDbEntity
  8
VHH-025
100
AcDbLine
 10
429.140408
 20
58.5
 30
0.0
 11
429.140408
 21
57.5
 31
0.0
  0
LINE
  5
1284
100
AcDbEntity
  8
VHH-025
100
AcDbLine
 10
429.140408
 20
58.5
 30
0.0
 11
429.140408
 21
57.5
 31
0.0
  0
ARC
  5
1285
100
AcDbEntity
  8
VHH-025
100
AcDbCircle
 10
429.140408
 20
63.723368
 30
0.0
 40
5.223368
100
AcDbArc
 50
270.0
 51
0.0
  0
ARC
  5
1286
100
AcDbEntity
  8
VHH-025
100
AcDbCircle
 10
429.140408
 20
63.723368
 30
0.0
 40
5.223368
100
AcDbArc
 50
270.0
 51
0.0
  0
LINE
  5
129E
100
AcDbEntity
  8
VHH-025
100
AcDbLine
 10
367.901689
 20
523.0
 30
0.0
 11
463.563842
 21
523.0
 31
0.0
  0
LINE
  5
129F
100
AcDbEntity
  8
VHH-025
100
AcDbLine
 10
372.098279
 20
522.0
 30
0.0
 11
463.589995
 21
522.0
 31
0.0
  0
LINE
  5
12A0
100
AcDbEntity
  8
VHH-025
100
AcDbLine
 10
394.422139
 20
511.7
 30
0.0
 11
460.644874
 21
511.7
 31
0.0
  0
LINE
  5
12A1
100
AcDbEntity
  8
VHH-025
100
AcDbLine
 10
400.632421
 20
511.7
 30
0.0
 11
412.587945
 21
511.7
 31
0.0
  0
LINE
  5
12A2
100
AcDbEntity
  8
VHH-025
100
AcDbLine
 10
396.364571
 20
510.3
 30
0.0
 11
439.528366
 21
510.3
 31
0.0
  0
LINE
  5
12A3
100
AcDbEntity
  8
VHH-025
100
AcDbLine
 10
395.549692
 20
510.9
 30
0.0
 11
439.528366
 21
510.9
 31
0.0
  0
LINE
  5
12A4
100
AcDbEntity
  8
VHH-025
100
AcDbLine
 10
391.569078
 20
513.577823
 30
0.0
 11
450.004157
 21
513.577834
 31
0.0
  0
LWPOLYLINE
  5
12A5
100
AcDbEntity
  8
VHH-025
100
AcDbPolyline
 90
        7
 70
     0
 43
0.0
 10
393.472164
 20
286.850897
 10
399.640255
 20
287.694759
 10
405.474792
 20
289.349811
 10
410.937294
 20
291.860223
 10
415.611325
 20
295.105694
 10
420.272837
 20
300.360186
 10
422.503173
 20
305.113681
  0
LWPOLYLINE
  5
12A6
100
AcDbEntity
  8
VHH-025
100
AcDbPolyline
 90
        8
 70
     0
 43
0.0
 10
414.811641
 20
317.398646
 10
413.952461
 20
315.343058
 10
411.981363
 20
312.537315
 10
409.152377
 20
309.963703
 10
405.679729
 20
307.819694
 10
401.619262
 20
306.129239
 10
397.361951
 20
305.018071
 10
392.8637
 20
304.433094
  0
ELLIPSE
  5
12A7
100
AcDbEntity
  8
VHH-025
100
AcDbEllipse
 10
352.390408
 20
443.176818
 30
0.0
 11
58.00000000000002
 21
0.0
 31
0.0
210
0.0
220
0.0
230
1.0
 40
0.898794
 41
-0.1655761376934025
 42
1.266770602773836
  0
LWPOLYLINE
  5
12A8
100
AcDbEntity
  8
VHH-025
100
AcDbPolyline
 90
        6
 70
     0
 43
0.0
 10
367.390408
 20
394.332416
 10
378.31614
 20
397.944137
 10
388.277808
 20
403.405801
 10
396.924469
 20
410.545599
 10
403.890338
 20
419.087681
 10
408.274964
 20
427.195903
  0
LINE
  5
12A9
100
AcDbEntity
  8
VHH-025
100
AcDbLine
 10
368.913622
 20
385.5
 30
0.0
 11
421.640408
 21
385.5
 31
0.0
  0
ELLIPSE
  5
12AA
100
AcDbEntity
  8
VHH-025
100
AcDbEllipse
 10
352.390408
 20
462.801175
 30
0.0
 11
68.74999999999994
 21
0.0
 31
0.0
210
0.0
220
0.0
230
1.0
 40
0.898794
 41
0.0
 42
1.35084531210301
  0
ELLIPSE
  5
12AB
100
AcDbEntity
  8
VHH-025
100
AcDbEllipse
 10
352.390408
 20
462.362804
 30
0.0
 11
68.75
 21
0.0
 31
0.0
210
0.0
220
0.0
230
1.0
 40
0.898794
 41
-0.6426447621672105
 42
1.350845312103009
  0
ELLIPSE
  5
12AC
100
AcDbEntity
  8
VHH-025
100
AcDbEllipse
 10
352.390408
 20
462.362804
 30
0.0
 11
66.25000000000001
 21
0.0
 31
0.0
210
0.0
220
0.0
230
1.0
 40
0.898794
 41
-0.3699018109876163
 42
1.342400712507127
  0
LWPOLYLINE
  5
12AD
100
AcDbEntity
  8
VHH-025
100
AcDbPolyline
 90
        5
 70
     0
 43
0.0
 10
289.969179
 20
317.398784
 10
286.24579
 20
331.248778
 10
283.571149
 20
345.206479
 10
281.952833
 20
359.220058
 10
281.390926
 20
373.269654
  0
LWPOLYLINE
  5
12AE
100
AcDbEntity
  8
VHH-025
100
AcDbPolyline
 90
        5
 70
     0
 43
0.0
 10
273.395922
 20
362.009067
 10
274.018835
 20
347.873565
 10
275.672612
 20
333.777775
 10
278.438295
 20
319.385508
 10
282.277641
 20
305.113553
  0
LINE
  5
12AF
100
AcDbEntity
  8
VHH-025
100
AcDbLine
 10
145.575279
 20
252.643619
 30
0.0
 11
138.621852
 21
244.804901
 31
0.0
  0
LINE
  5
12B0
100
AcDbEntity
  8
VHH-025
100
AcDbLine
 10
146.242826
 20
252.571326
 30
0.0
 11
146.242826
 21
226.975144
 31
0.0
  0
LINE
  5
12B1
100
AcDbEntity
  8
VHH-025
100
AcDbLine
 10
106.492817
 20
248.500004
 30
0.0
 11
105.621017
 21
223.534903
 31
0.0
  0
LINE
  5
12B2
100
AcDbEntity
  8
VHH-025
100
AcDbLine
 10
99.410355
 20
252.643619
 30
0.0
 11
106.363781
 21
244.804901
 31
0.0
  0
LINE
  5
12B3
100
AcDbEntity
  8
VHH-025
100
AcDbLine
 10
98.742807
 20
252.571326
 30
0.0
 11
98.742807
 21
226.975144
 31
0.0
  0
LINE
  5
12B4
100
AcDbEntity
  8
VHH-025
100
AcDbLine
 10
138.492817
 20
248.500004
 30
0.0
 11
139.364618
 21
223.534903
 31
0.0
  0
SPLINE
  5
12B5
100
AcDbEntity
  8
VHH-025
100
AcDbSpline
210
0.0
220
0.0
230
1.0
 70
     8
 71
     3
 72
    11
 73
     7
 74
     5
 42
0.0000001
 43
0.0000001
 44
0.0000000001
 40
0.0
 40
0.0
 40
0.0
 40
0.0
 40
3.507846858671287
 40
6.874945989829873
 40
13.58365647155437
 40
18.98257100025192
 40
18.98257100025192
 40
18.98257100025192
 40
18.98257100025192
 10
146.2428276029495
 20
226.9751439388
 30
0.0
 10
145.4891811092507
 20
226.0774716798683
 30
0.0
 10
144.0121271931723
 20
224.3181450771494
 30
0.0
 10
140.4943943423486
 20
221.4463472474508
 30
0.0
 10
136.0682432339608
 20
218.6942220973552
 30
0.0
 10
132.2122462073573
 20
217.4654140804666
 30
0.0
 10
130.4928174711994
 20
216.9174759464685
 30
0.0
 11
146.2428276029495
 21
226.9751439388
 31
0.0
 11
143.9029169543173
 21
224.3617538530479
 31
0.0
 11
141.3293207290144
 21
222.1905884912767
 31
0.0
 11
135.572977253295
 21
218.7451123097971
 31
0.0
 11
130.4928174711994
 21
216.9174759464685
 31
0.0
  0
ARC
  5
12B6
100
AcDbEntity
  8
VHH-025
100
AcDbCircle
 10
138.365227
 20
223.500004
 30
0.0
 40
1.0
100
AcDbArc
 50
270.000001
 51
2.000001
  0
SPLINE
  5
12B7
100
AcDbEntity
  8
VHH-025
100
AcDbSpline
210
0.0
220
0.0
230
1.0
 70
     8
 71
     3
 72
     9
 73
     5
 74
     3
 42
0.0000001
 43
0.0000001
 44
0.0000000001
 40
0.0
 40
0.0
 40
0.0
 40
0.0
 40
2.733829430437908
 40
5.619066715713797
 40
5.619066715713797
 40
5.619066715713797
 40
5.619066715713797
 10
105.7503964430934
 20
227.2398467542088
 30
0.0
 10
104.8411952172649
 20
227.1766132338644
 30
0.0
 10
102.9724384144235
 20
227.0466441269666
 30
0.0
 10
101.0997358156495
 20
226.9998340195946
 30
0.0
 10
100.1381541801965
 20
226.9757983079807
 30
0.0
 11
105.7503964430934
 21
227.2398467542088
 31
0.0
 11
103.0218587608842
 21
227.0698306623444
 31
0.0
 11
100.1381541801965
 21
226.9757983079807
 31
0.0
  0
SPLINE
  5
12B8
100
AcDbEntity
  8
VHH-025
100
AcDbSpline
210
0.0
220
0.0
230
1.0
 70
     8
 71
     3
 72
    11
 73
     7
 74
     5
 42
0.0000001
 43
0.0000001
 44
0.0000000001
 40
0.0
 40
0.0
 40
0.0
 40
0.0
 40
3.507846858671287
 40
6.874945989829873
 40
13.58365647155437
 40
18.98257100025278
 40
18.98257100025278
 40
18.98257100025278
 40
18.98257100025278
 10
98.74280745709166
 20
226.9751439388
 30
0.0
 10
99.49645395079045
 20
226.0774716798683
 30
0.0
 10
100.9735078668688
 20
224.3181450771494
 30
0.0
 10
104.4912407176924
 20
221.4463472474508
 30
0.0
 10
108.9173918260805
 20
218.694222097355
 30
0.0
 10
112.7733888526844
 20
217.4654140804666
 30
0.0
 10
114.4928175888426
 20
216.9174759464685
 30
0.0
 11
98.74280745709166
 21
226.9751439388
 31
0.0
 11
101.0827181057238
 21
224.3617538530479
 31
0.0
 11
103.6563143310267
 21
222.1905884912767
 31
0.0
 11
109.4126578067462
 21
218.7451123097971
 31
0.0
 11
114.4928175888426
 21
216.9174759464685
 31
0.0
  0
ARC
  5
12B9
100
AcDbEntity
  8
VHH-025
100
AcDbCircle
 10
106.620408
 20
223.500004
 30
0.0
 40
1.0
100
AcDbArc
 50
178.000001
 51
270.000001
  0
LINE
  5
12BA
100
AcDbEntity
  8
VHH-025
100
AcDbLine
 10
130.492818
 20
206.000004
 30
0.0
 11
130.492818
 21
203.500004
 31
0.0
  0
ARC
  5
12BB
100
AcDbEntity
  8
VHH-025
100
AcDbCircle
 10
129.492818
 20
203.500004
 30
0.0
 40
1.0
100
AcDbArc
 50
270.000001
 51
0.000001
  0
ARC
  5
12BC
100
AcDbEntity
  8
VHH-025
100
AcDbCircle
 10
132.492818
 20
220.500004
 30
0.0
 40
2.0
100
AcDbArc
 50
90.000001
 51
180.000001
  0
ARC
  5
12BD
100
AcDbEntity
  8
VHH-025
100
AcDbCircle
 10
131.242818
 20
207.000004
 30
0.0
 40
1.25
100
AcDbArc
 50
126.869898
 51
233.130103
  0
LINE
  5
12BE
100
AcDbEntity
  8
VHH-025
100
AcDbLine
 10
130.492818
 20
220.500004
 30
0.0
 11
130.492818
 21
208.000004
 31
0.0
  0
LINE
  5
12BF
100
AcDbEntity
  8
VHH-025
100
AcDbLine
 10
114.492818
 20
206.000004
 30
0.0
 11
114.492818
 21
203.500004
 31
0.0
  0
ARC
  5
12C0
100
AcDbEntity
  8
VHH-025
100
AcDbCircle
 10
115.492818
 20
203.500004
 30
0.0
 40
1.0
100
AcDbArc
 50
180.000001
 51
270.000001
  0
ARC
  5
12C1
100
AcDbEntity
  8
VHH-025
100
AcDbCircle
 10
112.492818
 20
220.500004
 30
0.0
 40
2.0
100
AcDbArc
 50
0.000001
 51
90.000001
  0
ARC
  5
12C2
100
AcDbEntity
  8
VHH-025
100
AcDbCircle
 10
113.742818
 20
207.000004
 30
0.0
 40
1.25
100
AcDbArc
 50
306.869898
 51
53.130103
  0
LINE
  5
12C3
100
AcDbEntity
  8
VHH-025
100
AcDbLine
 10
114.492818
 20
220.500004
 30
0.0
 11
114.492818
 21
208.000004
 31
0.0
  0
LINE
  5
12C4
100
AcDbEntity
  8
VHH-025
100
AcDbLine
 10
138.365227
 20
222.500004
 30
0.0
 11
106.620408
 21
222.500004
 31
0.0
  0
LINE
  5
12C5
100
AcDbEntity
  8
VHH-025
100
AcDbLine
 10
114.492818
 20
208.000004
 30
0.0
 11
130.492818
 21
208.000004
 31
0.0
  0
LINE
  5
12C6
100
AcDbEntity
  8
VHH-025
100
AcDbLine
 10
114.492818
 20
206.000004
 30
0.0
 11
130.492818
 21
206.000004
 31
0.0
  0
LINE
  5
12C7
100
AcDbEntity
  8
VHH-025
100
AcDbLine
 10
115.492818
 20
202.500004
 30
0.0
 11
129.492818
 21
202.500004
 31
0.0
  0
SPLINE
  5
12C8
100
AcDbEntity
  8
VHH-025
100
AcDbSpline
210
0.0
220
0.0
230
1.0
 70
     8
 71
     3
 72
     9
 73
     5
 74
     3
 42
0.0000001
 43
0.0000001
 44
0.0000000001
 40
0.0
 40
0.0
 40
0.0
 40
0.0
 40
2.733829430439723
 40
5.619066715714703
 40
5.619066715714703
 40
5.619066715714703
 40
5.619066715714703
 10
139.2352372431314
 20
227.2398467542088
 30
0.0
 10
140.1444384689605
 20
227.1766132338644
 30
0.0
 10
142.0131952718022
 20
227.0466441269667
 30
0.0
 10
143.8858978705765
 20
226.9998340195945
 30
0.0
 10
144.8474795060292
 20
226.9757983079807
 30
0.0
 11
139.2352372431314
 21
227.2398467542088
 31
0.0
 11
141.9637749253424
 21
227.0698306623444
 31
0.0
 11
144.8474795060292
 21
226.9757983079807
 31
0.0
  0
SPLINE
  5
12C9
100
AcDbEntity
  8
VHH-025
100
AcDbSpline
210
0.0
220
0.0
230
-1.0
 70
     8
 71
     3
 72
    12
 73
     8
 74
     0
 42
0.0000001
 43
0.0000001
 40
0.0
 40
0.0
 40
0.0
 40
0.0
 40
0.6095442177753267
 40
1.191522444246205
 40
3.446974159399096
 40
9.223824065212813
 40
10.45835832968933
 40
10.45835832968933
 40
10.45835832968933
 40
10.45835832968933
 10
146.2428262291341
 20
252.5713262576737
 30
0.0
 10
146.2454846415457
 20
252.7790584662752
 30
0.0
 10
146.2506812424844
 20
253.1851284144822
 30
0.0
 10
145.6070342829116
 20
254.184740530879
 30
0.0
 10
143.1942936609893
 20
255.8073989932572
 30
0.0
 10
140.5368319844392
 20
257.3764005994235
 30
0.0
 10
138.4021084997666
 20
258.3189339785412
 30
0.0
 10
138.0235890979338
 20
258.4796735115724
 30
0.0
  0
LWPOLYLINE
  5
12CA
100
AcDbEntity
  8
VHH-025
100
AcDbPolyline
 90
        3
 70
   128
 43
0.0
 10
128.362817
 20
258.800004
 42
0.0597
 10
127.882137
 20
262.811483
 42
0.073203
 10
126.643534
 20
265.871072
 42
0.106775
  0
LWPOLYLINE
  5
12CB
100
AcDbEntity
  8
VHH-025
100
AcDbPolyline
 90
        3
 70
   128
 43
0.0
 10
118.3421
 20
265.871072
 42
0.073203
 10
117.103497
 20
262.811483
 42
0.0597
 10
116.622817
 20
258.800004
 42
0.0597
  0
LWPOLYLINE
  5
12CC
100
AcDbEntity
  8
VHH-025
100
AcDbPolyline
 90
        9
 70
   128
 43
0.0
 10
131.362817
 20
258.800004
 42
0.0597
 10
130.797206
 20
263.520263
 42
0.073203
 10
129.230732
 20
267.389757
 42
0.106775
 10
126.280099
 20
270.598298
 42
0.154846
 10
122.492817
 20
271.800004
 42
0.154846
 10
118.705535
 20
270.598298
 42
0.106775
 10
115.754902
 20
267.389757
 42
0.073203
 10
114.188427
 20
263.520263
 42
0.0597
 10
113.622817
 20
258.800004
 42
0.0597
  0
LINE
  5
12CD
100
AcDbEntity
  8
VHH-025
100
AcDbLine
 10
118.991848
 20
258.722236
 30
0.0
 11
118.991848
 21
265.745067
 31
0.0
  0
LINE
  5
12CE
100
AcDbEntity
  8
VHH-025
100
AcDbLine
 10
125.993785
 20
258.722236
 30
0.0
 11
125.993785
 21
265.745067
 31
0.0
  0
LINE
  5
12CF
100
AcDbEntity
  8
VHH-025
100
AcDbLine
 10
118.492817
 20
266.116632
 30
0.0
 11
118.492817
 21
258.800004
 31
0.0
  0
LINE
  5
12D0
100
AcDbEntity
  8
VHH-025
100
AcDbLine
 10
109.492817
 20
266.9147
 30
0.0
 11
109.492817
 21
258.800004
 31
0.0
  0
LINE
  5
12D1
100
AcDbEntity
  8
VHH-025
100
AcDbLine
 10
126.492817
 20
266.116632
 30
0.0
 11
126.492817
 21
258.800004
 31
0.0
  0
LINE
  5
12D2
100
AcDbEntity
  8
VHH-025
100
AcDbLine
 10
135.492817
 20
266.9147
 30
0.0
 11
135.492817
 21
258.800004
 31
0.0
  0
SPLINE
  5
12D3
100
AcDbEntity
  8
VHH-025
100
AcDbSpline
210
0.0
220
0.0
230
-1.0
 70
     8
 71
     3
 72
     8
 73
     4
 74
     0
 42
0.0000001
 43
0.0000001
 40
11.26475349674838
 40
11.26475349674838
 40
11.26475349674838
 40
11.26475349674838
 40
13.18171191061374
 40
13.18171191061374
 40
13.18171191061374
 40
13.18171191061374
 10
107.7068419810047
 20
258.7886382306351
 30
0.0
 10
108.2991725405354
 20
259.0292138808017
 30
0.0
 10
108.8959946918248
 20
259.2609341979696
 30
0.0
 10
109.4928168431133
 20
259.4926545151374
 30
0.0
  0
SPLINE
  5
12D4
100
AcDbEntity
  8
VHH-025
100
AcDbSpline
210
0.0
220
0.0
230
-1.0
 70
     8
 71
     3
 72
    12
 73
     8
 74
     0
 42
0.0000001
 43
0.0000001
 40
0.0
 40
0.0
 40
0.0
 40
0.0
 40
0.6095442177753267
 40
1.191522444246205
 40
3.446974159399096
 40
9.223824065212813
 40
10.45835832968933
 40
10.45835832968933
 40
10.45835832968933
 40
10.45835832968933
 10
98.74280745709166
 20
252.5713262576737
 30
0.0
 10
98.74014904468005
 20
252.7790584662752
 30
0.0
 10
98.73495244374044
 20
253.1851284144822
 30
0.0
 10
99.37859940331419
 20
254.184740530879
 30
0.0
 10
101.7913400252364
 20
255.8073989932572
 30
0.0
 10
104.4488017017865
 20
257.3764005994235
 30
0.0
 10
106.5835251864582
 20
258.3189339785412
 30
0.0
 10
106.9620445882928
 20
258.4796735115724
 30
0.0
  0
SPLINE
  5
12D5
100
AcDbEntity
  8
VHH-025
100
AcDbSpline
210
0.0
220
0.0
230
-1.0
 70
     8
 71
     3
 72
     8
 73
     4
 74
     0
 42
0.0000001
 43
0.0000001
 40
11.26475349674838
 40
11.26475349674838
 40
11.26475349674838
 40
11.26475349674838
 40
13.18171191061374
 40
13.18171191061374
 40
13.18171191061374
 40
13.18171191061374
 10
137.278791705221
 20
258.7886382306351
 30
0.0
 10
136.6864611456903
 20
259.0292138808017
 30
0.0
 10
136.0896389944018
 20
259.2609341979696
 30
0.0
 10
135.4928168431124
 20
259.4926545151374
 30
0.0
  0
LINE
  5
12D6
100
AcDbEntity
  8
VHH-025
100
AcDbLine
 10
138.492817
 20
248.500004
 30
0.0
 11
138.158409
 21
258.076179
 31
0.0
  0
LINE
  5
12D7
100
AcDbEntity
  8
VHH-025
100
AcDbLine
 10
137.643298
 20
250.500004
 30
0.0
 11
137.39255
 21
258.050004
 31
0.0
  0
LINE
  5
12D8
100
AcDbEntity
  8
VHH-025
100
AcDbLine
 10
125.878312
 20
250.500004
 30
0.0
 11
125.812744
 21
258.050004
 31
0.0
  0
LINE
  5
12D9
100
AcDbEntity
  8
VHH-025
100
AcDbLine
 10
129.828303
 20
250.500004
 30
0.0
 11
129.701287
 21
258.050004
 31
0.0
  0
LINE
  5
12DA
100
AcDbEntity
  8
VHH-025
100
AcDbLine
 10
135.875309
 20
250.500004
 30
0.0
 11
135.6527
 21
258.050004
 31
0.0
  0
LINE
  5
12DB
100
AcDbEntity
  8
VHH-025
100
AcDbLine
 10
133.228297
 20
250.500004
 30
0.0
 11
133.047815
 21
258.050004
 31
0.0
  0
LINE
  5
12DC
100
AcDbEntity
  8
VHH-025
100
AcDbLine
 10
119.107322
 20
250.500004
 30
0.0
 11
119.172889
 21
258.050004
 31
0.0
  0
LINE
  5
12DD
100
AcDbEntity
  8
VHH-025
100
AcDbLine
 10
121.072413
 20
250.500004
 30
0.0
 11
119.107322
 21
250.500004
 31
0.0
  0
LINE
  5
12DE
100
AcDbEntity
  8
VHH-025
100
AcDbLine
 10
131.686865
 20
250.500004
 30
0.0
 11
133.228297
 21
250.500004
 31
0.0
  0
LINE
  5
12DF
100
AcDbEntity
  8
VHH-025
100
AcDbLine
 10
128.018173
 20
250.500004
 30
0.0
 11
129.828303
 21
250.500004
 31
0.0
  0
LINE
  5
12E0
100
AcDbEntity
  8
VHH-025
100
AcDbLine
 10
123.913221
 20
250.500004
 30
0.0
 11
125.878312
 21
250.500004
 31
0.0
  0
LINE
  5
12E1
100
AcDbEntity
  8
VHH-025
100
AcDbLine
 10
136.906855
 20
250.500004
 30
0.0
 11
137.643298
 21
250.500004
 31
0.0
  0
LINE
  5
12E2
100
AcDbEntity
  8
VHH-025
100
AcDbLine
 10
134.699429
 20
250.500004
 30
0.0
 11
135.875309
 21
250.500004
 31
0.0
  0
ARC
  5
12E3
100
AcDbEntity
  8
VHH-025
100
AcDbCircle
 10
137.408866
 20
258.050004
 30
0.0
 40
0.75
100
AcDbArc
 50
2.0
 51
90.0
  0
LINE
  5
12E4
100
AcDbEntity
  8
VHH-025
100
AcDbLine
 10
115.157331
 20
250.500004
 30
0.0
 11
115.284346
 21
258.050004
 31
0.0
  0
LINE
  5
12E5
100
AcDbEntity
  8
VHH-025
100
AcDbLine
 10
111.757337
 20
250.500004
 30
0.0
 11
111.937819
 21
258.050004
 31
0.0
  0
LINE
  5
12E6
100
AcDbEntity
  8
VHH-025
100
AcDbLine
 10
106.492817
 20
248.500004
 30
0.0
 11
106.827224
 21
258.076179
 31
0.0
  0
LINE
  5
12E7
100
AcDbEntity
  8
VHH-025
100
AcDbLine
 10
109.110325
 20
250.500004
 30
0.0
 11
109.332933
 21
258.050004
 31
0.0
  0
LINE
  5
12E8
100
AcDbEntity
  8
VHH-025
100
AcDbLine
 10
107.342336
 20
250.500004
 30
0.0
 11
107.593084
 21
258.050004
 31
0.0
  0
LINE
  5
12E9
100
AcDbEntity
  8
VHH-025
100
AcDbLine
 10
116.967461
 20
250.500004
 30
0.0
 11
115.157331
 21
250.500004
 31
0.0
  0
LINE
  5
12EA
100
AcDbEntity
  8
VHH-025
100
AcDbLine
 10
113.298768
 20
250.500004
 30
0.0
 11
111.757337
 21
250.500004
 31
0.0
  0
LINE
  5
12EB
100
AcDbEntity
  8
VHH-025
100
AcDbLine
 10
108.078779
 20
250.500004
 30
0.0
 11
107.342336
 21
250.500004
 31
0.0
  0
LINE
  5
12EC
100
AcDbEntity
  8
VHH-025
100
AcDbLine
 10
110.286204
 20
250.500004
 30
0.0
 11
109.110325
 21
250.500004
 31
0.0
  0
ARC
  5
12ED
100
AcDbEntity
  8
VHH-025
100
AcDbCircle
 10
107.576767
 20
258.050004
 30
0.0
 40
0.75
100
AcDbArc
 50
90.0
 51
178.0
  0
LINE
  5
12EE
100
AcDbEntity
  8
VHH-025
100
AcDbLine
 10
106.492817
 20
248.500004
 30
0.0
 11
138.492817
 21
248.500004
 31
0.0
  0
LINE
  5
12EF
100
AcDbEntity
  8
VHH-025
100
AcDbLine
 10
107.576767
 20
258.800004
 30
0.0
 11
137.408866
 21
258.800004
 31
0.0
  0
LWPOLYLINE
  5
12F0
100
AcDbEntity
  8
VHH-025
100
AcDbPolyline
 90
        2
 70
   128
 43
0.0
 10
118.492817
 20
266.116632
 42
0.009838
 10
118.3421
 20
265.871072
 42
0.073203
  0
LWPOLYLINE
  5
12F1
100
AcDbEntity
  8
VHH-025
100
AcDbPolyline
 90
        5
 70
   128
 43
0.0
 10
126.643534
 20
265.871072
 42
0.106775
 10
124.550438
 20
268.14712
 42
0.154846
 10
122.492817
 20
268.800004
 42
0.154846
 10
120.435196
 20
268.14712
 42
0.096835
 10
118.492817
 20
266.116632
 42
0.073203
  0
LINE
  5
12F2
100
AcDbEntity
  8
VHH-025
100
AcDbLine
 10
119.78519
 20
266.522747
 30
0.0
 11
125.200444
 21
266.522747
 31
0.0
  0
LINE
  5
12F3
100
AcDbEntity
  8
VHH-025
100
AcDbLine
 10
118.991848
 20
265.745067
 30
0.0
 11
119.78519
 21
266.522747
 31
0.0
  0
LINE
  5
12F4
100
AcDbEntity
  8
VHH-025
100
AcDbLine
 10
125.993785
 20
265.745067
 30
0.0
 11
125.200444
 21
266.522747
 31
0.0
  0
LWPOLYLINE
  5
12F5
100
AcDbEntity
  8
VHH-025
100
AcDbPolyline
 90
       14
 70
     0
 43
0.0
 10
109.492817
 20
266.9147
 42
-0.236789
 10
109.62827
 20
267.184684
 42
0.124736
 10
110.55715
 20
268.32904
 42
0.224952
 10
110.41084
 20
284.786216
 42
-0.113339
 10
107.405589
 20
297.873749
 10
107.405589
 20
301.748943
 42
-0.301029
 10
110.452993
 20
306.351917
 42
-0.203332
 10
134.532641
 20
306.351917
 42
-0.301029
 10
137.580045
 20
301.748943
 10
137.580045
 20
297.873749
 42
-0.113339
 10
134.574794
 20
284.786216
 42
0.224952
 10
134.428484
 20
268.32904
 42
0.124736
 10
135.357364
 20
267.184684
 42
-0.236789
 10
135.492817
 20
266.9147
 42
-0.293728
  0
LWPOLYLINE
  5
12F6
100
AcDbEntity
  8
VHH-025
100
AcDbPolyline
 90
        5
 70
     0
 43
0.0
 10
392.8637
 20
304.433092
 10
372.652592
 20
303.398743
 10
352.390588
 20
303.053661
 10
332.128404
 20
303.398737
 10
311.917116
 20
304.433092
  0
LWPOLYLINE
  5
12F7
100
AcDbEntity
  8
VHH-025
100
AcDbPolyline
 90
        5
 70
     0
 43
0.0
 10
311.308652
 20
286.8509
 10
331.823894
 20
285.800979
 10
352.390228
 20
285.450713
 10
372.956742
 20
285.800973
 10
393.472164
 20
286.8509
  0
LWPOLYLINE
  5
12F8
100
AcDbEntity
  8
VHH-025
100
AcDbPolyline
 90
        8
 70
     0
 43
0.0
 10
282.277643
 20
305.113664
 10
284.313283
 20
300.668772
 10
287.412306
 20
296.740664
 10
291.466515
 20
293.34811
 10
295.860421
 20
290.80379
 10
300.791814
 20
288.839865
 10
305.934939
 20
287.537191
 10
311.308652
 20
286.850898
  0
LWPOLYLINE
  5
12F9
100
AcDbEntity
  8
VHH-025
100
AcDbPolyline
 90
        7
 70
     0
 43
0.0
 10
311.917116
 20
304.433095
 10
307.324658
 20
305.036488
 10
302.986931
 20
306.187984
 10
298.993043
 20
307.875075
 10
295.576955
 20
310.002249
 10
291.620884
 20
314.039268
 10
289.969166
 20
317.39843
  0
LWPOLYLINE
  5
12FA
100
AcDbEntity
  8
VHH-025
100
AcDbPolyline
 90
       11
 70
     0
 43
0.0
 10
222.713192
 20
521.508898
 10
222.678577
 20
488.970295
 10
222.66613
 20
472.101423
 10
222.664788
 20
469.982879
 10
222.663503
 20
467.862187
 10
222.662286
 20
465.739785
 10
222.661112
 20
463.615908
 10
222.65886
 20
459.364269
 10
222.656699
 20
455.107515
 10
222.64275
 20
421.039066
 10
222.634311
 20
388.001673
  0
SPLINE
  5
12FB
100
AcDbEntity
  8
VHH-025
100
AcDbSpline
210
0.0
220
0.0
230
1.0
 70
     8
 71
     3
 72
    13
 73
     9
 74
     7
 42
0.0000001
 43
0.0000001
 44
0.0000000001
 40
0.0
 40
0.0
 40
0.0
 40
0.0
 40
3.284478271109694
 40
5.848013776661736
 40
8.811210366641999
 40
13.31059109350706
 40
22.19952180646415
 40
44.15308546549785
 40
44.15308546549785
 40
44.15308546549785
 40
44.15308546549785
 10
162.3950169921609
 20
543.2177674662398
 30
0.0
 10
162.2468387613453
 20
542.1136587897735
 30
0.0
 10
161.9830074116809
 20
540.1477932190678
 30
0.0
 10
160.1848680579615
 20
537.7197369067358
 30
0.0
 10
157.3203667871947
 20
535.7983223500513
 30
0.0
 10
151.7129436358815
 20
535.600604129006
 30
0.0
 10
140.0490772125569
 20
535.5017952914089
 30
0.0
 10
129.7366889706918
 20
535.4672750274954
 30
0.0
 10
122.3963724251516
 20
535.442703642243
 30
0.0
 11
162.3950169921609
 21
543.2177674662398
 31
0.0
 11
161.6572508920844
 21
540.017220841838
 31
0.0
 11
160.1693640624362
 21
537.9296607659634
 31
0.0
 11
157.6919282876488
 21
536.3039775210864
 31
0.0
 11
153.2377587863984
 21
535.6677378025715
 31
0.0
 11
144.3497087265568
 21
535.542616447472
 31
0.0
 11
122.3963724251516
 21
535.442703642243
 31
0.0
  0
SPLINE
  5
12FC
100
AcDbEntity
  8
VHH-025
100
AcDbSpline
210
0.0
220
0.0
230
1.0
 70
     8
 71
     3
 72
    13
 73
     9
 74
     0
 42
0.0000001
 43
0.0000001
 40
84.6955679326532
 40
84.6955679326532
 40
84.6955679326532
 40
84.6955679326532
 40
85.81548028374967
 40
86.6565862794542
 40
87.78626872105837
 40
90.14984869879972
 40
105.9639654671869
 40
122.7164926965437
 40
122.7164926965437
 40
122.7164926965437
 40
122.7164926965437
 10
158.8950169921617
 20
558.3965874588529
 30
0.0
 10
158.853880526417
 20
558.0189825823026
 30
0.0
 10
158.7768211140464
 20
557.3572200834915
 30
0.0
 10
158.1734063932253
 20
556.4939072621282
 30
0.0
 10
156.9926002923866
 20
555.5768441575292
 30
0.0
 10
150.256024896762
 20
555.7075542287338
 30
0.0
 10
138.9215830794564
 20
555.8663416266072
 30
0.0
 10
128.0079676838058
 20
556.0371169104127
 30
0.0
 10
122.3939216341414
 20
556.1249650040708
 30
0.0
  0
LINE
  5
12FD
100
AcDbEntity
  8
VHH-025
100
AcDbLine
 10
137.799142
 20
544.402934
 30
0.0
 11
142.314971
 21
544.402934
 31
0.0
  0
SPLINE
  5
12FE
100
AcDbEntity
  8
VHH-025
100
AcDbSpline
210
0.0
220
0.0
230
1.0
 70
     8
 71
     3
 72
    13
 73
     9
 74
     7
 42
0.0000001
 43
0.0000001
 44
0.0000000001
 40
0.0
 40
0.0
 40
0.0
 40
0.0
 40
3.284478271109694
 40
5.848013776661736
 40
8.811210366641999
 40
13.31059109350706
 40
22.19952180646415
 40
44.15308546549785
 40
44.15308546549785
 40
44.15308546549785
 40
44.15308546549785
 10
82.39282627612192
 20
543.2177674662398
 30
0.0
 10
82.54100450693741
 20
542.1136587897735
 30
0.0
 10
82.80483585660187
 20
540.1477932190678
 30
0.0
 10
84.60297521032124
 20
537.7197369067358
 30
0.0
 10
87.46747648108804
 20
535.7983223500513
 30
0.0
 10
93.07489963240128
 20
535.600604129006
 30
0.0
 10
104.7387660557257
 20
535.5017952914089
 30
0.0
 10
115.0511542975909
 20
535.4672750274954
 30
0.0
 10
122.3914708431311
 20
535.442703642243
 30
0.0
 11
82.39282627612192
 21
543.2177674662398
 31
0.0
 11
83.13059237619837
 21
540.017220841838
 31
0.0
 11
84.61847920584659
 21
537.9296607659634
 31
0.0
 11
87.09591498063401
 21
536.3039775210864
 31
0.0
 11
91.55008448188437
 21
535.6677378025715
 31
0.0
 11
100.4381345417259
 21
535.542616447472
 31
0.0
 11
122.3914708431311
 21
535.442703642243
 31
0.0
  0
SPLINE
  5
12FF
100
AcDbEntity
  8
VHH-025
100
AcDbSpline
210
0.0
220
0.0
230
1.0
 70
     8
 71
     3
 72
    13
 73
     9
 74
     0
 42
0.0000001
 43
0.0000001
 40
84.6955679326532
 40
84.6955679326532
 40
84.6955679326532
 40
84.6955679326532
 40
85.81548028374967
 40
86.6565862794542
 40
87.78626872105837
 40
90.14984869879972
 40
105.9639654671869
 40
122.7164926965437
 40
122.7164926965437
 40
122.7164926965437
 40
122.7164926965437
 10
85.89282627612101
 20
558.3965874588529
 30
0.0
 10
85.93396274186579
 20
558.0189825823026
 30
0.0
 10
86.01102215423635
 20
557.3572200834915
 30
0.0
 10
86.61443687505743
 20
556.4939072621282
 30
0.0
 10
87.79524297589615
 20
555.5768441575292
 30
0.0
 10
94.53181837152078
 20
555.7075542287338
 30
0.0
 10
105.8662601888263
 20
555.8663416266072
 30
0.0
 10
116.7798755844769
 20
556.0371169104127
 30
0.0
 10
122.3939216341414
 20
556.1249650040708
 30
0.0
  0
SPLINE
  5
1300
100
AcDbEntity
  8
VHH-025
100
AcDbSpline
210
0.0
220
0.0
230
1.0
 70
     8
 71
     3
 72
    12
 73
     8
 74
     6
 42
0.0000001
 43
0.0000001
 44
0.0000000001
 40
0.0
 40
0.0
 40
0.0
 40
0.0
 40
1.006217164968555
 40
1.679832645747587
 40
2.564456909786291
 40
3.472698377670331
 40
4.209033191013679
 40
4.209033191013679
 40
4.209033191013679
 40
4.209033191013679
 10
108.5829504867124
 20
542.508216664155
 30
0.0
 10
108.9358022314336
 20
542.499430033558
 30
0.0
 10
109.5248717688334
 20
542.4847611634207
 30
0.0
 10
110.1183911618138
 20
541.7352203537971
 30
0.0
 10
109.9172286863229
 20
540.8334711668569
 30
0.0
 10
109.2097815641447
 20
540.2616863917042
 30
0.0
 10
108.6546259396633
 20
540.2225537599323
 30
0.0
 10
108.4060631835327
 20
540.2050327002889
 30
0.0
 11
108.5829504867124
 21
542.508216664155
 31
0.0
 11
109.56964252145
 21
542.3109558934411
 31
0.0
 11
109.9784101596205
 21
541.7755431237674
 31
0.0
 11
109.8326638202415
 21
540.9030076843245
 31
0.0
 11
109.1326773679611
 21
540.3242836303852
 31
0.0
 11
108.4060631835327
 21
540.2050327002889
 31
0.0
  0
SPLINE
  5
1301
100
AcDbEntity
  8
VHH-025
100
AcDbSpline
210
0.0
220
0.0
230
-1.0
 70
     8
 71
     3
 72
    12
 73
     8
 74
     6
 42
0.0000001
 43
0.0000001
 44
0.0000000001
 40
0.0
 40
0.0
 40
0.0
 40
0.0
 40
1.411106911325625
 40
2.125038086020792
 40
2.805834388316414
 40
3.535044224462307
 40
4.326784235139865
 40
4.326784235139865
 40
4.326784235139865
 40
4.326784235139865
 10
108.1663797981809
 20
542.508216664155
 30
0.0
 10
108.6425691374069
 20
542.5172704845921
 30
0.0
 10
109.3596802746926
 20
542.5309049676341
 30
0.0
 10
110.2053220220577
 20
543.1087114544607
 30
0.0
 10
110.2059199337311
 20
543.9470776302644
 30
0.0
 10
109.5151090892602
 20
544.3965319568327
 30
0.0
 10
109.0058122028603
 20
544.4007422726424
 30
0.0
 10
108.740694504786
 20
544.4029339790231
 30
0.0
 11
108.1663797981809
 21
542.508216664155
 31
0.0
 11
109.5611481332944
 21
542.7223287996257
 31
0.0
 11
110.10527064504
 21
543.184528339233
 31
0.0
 11
110.1026789588786
 21
543.8653197084367
 31
0.0
 11
109.5273519151751
 21
544.3133663331482
 31
0.0
 11
108.740694504786
 21
544.4029339790231
 31
0.0
  0
SPLINE
  5
1302
100
AcDbEntity
  8
VHH-025
100
AcDbSpline
210
0.0
220
0.0
230
-1.0
 70
     8
 71
     3
 72
    12
 73
     8
 74
     6
 42
0.0000001
 43
0.0000001
 44
0.0000000001
 40
0.0
 40
0.0
 40
0.0
 40
0.0
 40
1.411106911325625
 40
2.125038086020792
 40
2.805834388316414
 40
3.535044224462307
 40
4.326784235139865
 40
4.326784235139865
 40
4.326784235139865
 40
4.326784235139865
 10
109.4853039144263
 20
548.8603060096102
 30
0.0
 10
109.9614932536523
 20
548.8693598300472
 30
0.0
 10
110.678604390938
 20
548.8829943130893
 30
0.0
 10
111.5242461383031
 20
549.4608007999159
 30
0.0
 10
111.5248440499766
 20
550.2991669757196
 30
0.0
 10
110.8340332055056
 20
550.7486213022879
 30
0.0
 10
110.3247363191057
 20
550.7528316180975
 30
0.0
 10
110.0596186210313
 20
550.7550233244783
 30
0.0
 11
109.4853039144263
 21
548.8603060096102
 31
0.0
 11
110.8800722495398
 21
549.0744181450809
 31
0.0
 11
111.4241947612854
 21
549.5366176846882
 31
0.0
 11
111.421603075124
 21
550.2174090538919
 31
0.0
 11
110.8462760314205
 21
550.6654556786034
 31
0.0
 11
110.0596186210313
 21
550.7550233244783
 31
0.0
  0
SPLINE
  5
1303
100
AcDbEntity
  8
VHH-025
100
AcDbSpline
210
0.0
220
0.0
230
1.0
 70
     8
 71
     3
 72
    12
 73
     8
 74
     6
 42
0.0000001
 43
0.0000001
 44
0.0000000001
 40
0.0
 40
0.0
 40
0.0
 40
0.0
 40
1.006217164968555
 40
1.679832645747587
 40
2.564456909786291
 40
3.472698377670331
 40
4.209033191013679
 40
4.209033191013679
 40
4.209033191013679
 40
4.209033191013679
 10
109.9018746029578
 20
548.8603060096102
 30
0.0
 10
110.254726347679
 20
548.8515193790133
 30
0.0
 10
110.8437958850787
 20
548.8368505088759
 30
0.0
 10
111.4373152780593
 20
548.0873096992523
 30
0.0
 10
111.2361528025683
 20
547.185560512312
 30
0.0
 10
110.5287056803901
 20
546.6137757371596
 30
0.0
 10
109.9735500559088
 20
546.5746431053875
 30
0.0
 10
109.7249872997781
 20
546.5571220457441
 30
0.0
 11
109.9018746029578
 21
548.8603060096102
 31
0.0
 11
110.8885666376954
 21
548.6630452388963
 31
0.0
 11
111.2973342758659
 21
548.1276324692226
 31
0.0
 11
111.1515879364869
 21
547.2550970297797
 31
0.0
 11
110.4516014842065
 21
546.6763729758404
 31
0.0
 11
109.7249872997781
 21
546.5571220457441
 31
0.0
  0
SPLINE
  5
1304
100
AcDbEntity
  8
VHH-025
100
AcDbSpline
210
0.0
220
0.0
230
1.0
 70
    11
 71
     3
 72
    15
 73
    11
 74
     9
 42
0.0000001
 43
0.0000001
 44
0.0000000001
 40
0.0
 40
0.0
 40
0.0
 40
0.0
 40
0.514764739407837
 40
2.457789820815747
 40
3.944434646997075
 40
5.591791425460105
 40
7.10451629126382
 40
9.337163693807625
 40
10.73578930127832
 40
12.20445453441531
 40
12.20445453441531
 40
12.20445453441531
 40
12.20445453441531
 10
111.9457297939188
 20
542.8242162485221
 30
0.0
 10
112.0100306853452
 20
542.9825929530059
 30
0.0
 10
112.317040984067
 20
543.7387765497732
 30
0.0
 10
113.5702688699375
 20
544.7030339837341
 30
0.0
 10
115.4083780031713
 20
543.9774958629278
 30
0.0
 10
115.7414268178976
 20
542.2474845534897
 30
0.0
 10
114.9801128044003
 20
540.5484929961631
 30
0.0
 10
112.8912166244999
 20
539.8077180773006
 30
0.0
 10
111.6031665736389
 20
541.3563404946071
 30
0.0
 10
111.8296975548417
 20
542.3270206935685
 30
0.0
 10
111.9457297939188
 20
542.8242162485221
 30
0.0
 11
111.9457297939188
 21
542.8242162485221
 31
0.0
 11
112.159419691281
 21
543.2925317027866
 31
0.0
 11
113.7640615293594
 21
544.3881917953649
 31
0.0
 11
115.1454224446088
 21
543.8386875997184
 31
0.0
 11
115.568288840438
 21
542.2465292009319
 31
0.0
 11
114.919893322386
 21
540.8798105862233
 31
0.0
 11
112.7632764036652
 21
540.3021273772128
 31
0.0
 11
111.8470611571146
 21
541.3588691677468
 31
0.0
 11
111.9457297939188
 21
542.8242162485221
 31
0.0
  0
SPLINE
  5
1305
100
AcDbEntity
  8
VHH-025
100
AcDbSpline
210
0.0
220
0.0
230
1.0
 70
     8
 71
     3
 72
    12
 73
     8
 74
     0
 42
0.0000001
 43
0.0000001
 40
1.820596868471746
 40
1.820596868471746
 40
1.820596868471746
 40
1.820596868471746
 40
4.503295473557569
 40
6.216955522489968
 40
7.774552440697402
 40
9.232972112989187
 40
10.8164521343443
 40
10.8164521343443
 40
10.8164521343443
 40
10.8164521343443
 10
114.7858473207261
 20
548.4333369542228
 30
0.0
 10
115.2486677867345
 20
548.4479974493215
 30
0.0
 10
115.9606529159455
 20
548.5817068106935
 30
0.0
 10
116.6697443219154
 20
549.364923090603
 30
0.0
 10
116.7231778522336
 20
550.2671833980129
 30
0.0
 10
116.0013389113564
 20
550.7518270163973
 30
0.0
 10
115.4920808117158
 20
550.7539290813456
 30
0.0
 10
115.2269833043328
 20
550.7550233244783
 30
0.0
  0
SPLINE
  5
1306
100
AcDbEntity
  8
VHH-025
100
AcDbSpline
210
0.0
220
0.0
230
1.0
 70
     8
 71
     3
 72
    12
 73
     8
 74
     0
 42
0.0000001
 43
0.0000001
 40
0.3004138362153372
 40
0.3004138362153372
 40
0.3004138362153372
 40
0.3004138362153372
 40
0.6531836346659445
 40
2.201425060069765
 40
3.775834883110177
 40
5.170639203720888
 40
5.549375987942882
 40
5.549375987942882
 40
5.549375987942882
 40
5.549375987942882
 10
116.0041039518919
 20
546.557122045745
 30
0.0
 10
115.9941896631071
 20
546.6152425106729
 30
0.0
 10
115.9469790160101
 20
546.9276352444977
 30
0.0
 10
115.9938109858912
 20
547.481448833927
 30
0.0
 10
115.8518806833462
 20
548.3627740513156
 30
0.0
 10
115.215744380358
 20
548.4342724435164
 30
0.0
 10
114.9073214311783
 20
548.4320828407926
 30
0.0
 10
114.7858473207261
 20
548.4333369542228
 30
0.0
  0
SPLINE
  5
1307
100
AcDbEntity
  8
VHH-025
100
AcDbSpline
210
0.0
220
0.0
230
1.0
 70
    11
 71
     3
 72
    15
 73
    11
 74
     9
 42
0.0000001
 43
0.0000001
 44
0.0000000001
 40
0.0
 40
0.0
 40
0.0
 40
0.0
 40
0.514764739407837
 40
2.457789820815747
 40
3.944434646997075
 40
5.591791425460105
 40
7.10451629126382
 40
9.337163693807625
 40
10.73578930127832
 40
12.20445453441531
 40
12.20445453441531
 40
12.20445453441531
 40
12.20445453441531
 10
133.9563271827801
 20
549.1701369677575
 30
0.0
 10
134.0206280742064
 20
549.3285136722413
 30
0.0
 10
134.3276383729282
 20
550.0846972690087
 30
0.0
 10
135.5808662587988
 20
551.0489547029695
 30
0.0
 10
137.4189753920325
 20
550.3234165821631
 30
0.0
 10
137.7520242067588
 20
548.5934052727252
 30
0.0
 10
136.9907101932616
 20
546.8944137153986
 30
0.0
 10
134.9018140133611
 20
546.153638796536
 30
0.0
 10
133.6137639625001
 20
547.7022612138426
 30
0.0
 10
133.840294943703
 20
548.6729414128039
 30
0.0
 10
133.9563271827801
 20
549.1701369677575
 30
0.0
 11
133.9563271827801
 21
549.1701369677575
 31
0.0
 11
134.1700170801423
 21
549.638452422022
 31
0.0
 11
135.7746589182206
 21
550.7341125146004
 31
0.0
 11
137.15601983347
 21
550.1846083189539
 31
0.0
 11
137.5788862292993
 21
548.5924499201673
 31
0.0
 11
136.9304907112473
 21
547.2257313054588
 31
0.0
 11
134.7738737925264
 21
546.6480480964483
 31
0.0
 11
133.8576585459759
 21
547.7047898869823
 31
0.0
 11
133.9563271827801
 21
549.1701369677575
 31
0.0
  0
SPLINE
  5
1308
100
AcDbEntity
  8
VHH-025
100
AcDbSpline
210
0.0
220
0.0
230
1.0
 70
     8
 71
     3
 72
    20
 73
    16
 74
     0
 42
0.0000001
 43
0.0000001
 40
0.0
 40
0.0
 40
0.0
 40
0.0
 40
0.3918367249981683
 40
0.3918367249981683
 40
0.6525501684806338
 40
0.6525501684806338
 40
1.182440120300543
 40
1.182440120300543
 40
1.712330072120452
 40
1.712330072120452
 40
2.006270928035041
 40
2.006270928035041
 40
2.315289501487082
 40
2.315289501487082
 40
2.616402084268149
 40
2.616402084268149
 40
2.616402084268149
 40
2.616402084268149
 10
66.4969923558101
 20
553.4448793183246
 30
0.0
 10
66.62758971385028
 20
553.465204794872
 30
0.0
 10
66.73977175252367
 20
553.4834693973926
 30
0.0
 10
66.88938521678938
 20
553.5193358176975
 30
0.0
 10
66.9390914623591
 20
553.5348291204518
 30
0.0
 10
67.06190791926656
 20
553.5841206296573
 30
0.0
 10
67.14651172047524
 20
553.6366299244718
 30
0.0
 10
67.30725242703283
 20
553.7782206218089
 30
0.0
 10
67.38053986794056
 20
553.8656042831989
 30
0.0
 10
67.46496316269804
 20
554.0052175410246
 30
0.0
 10
67.4896253538218
 20
554.0559666098342
 30
0.0
 10
67.52811736113653
 20
554.1581088020202
 30
0.0
 10
67.5408285786134
 20
554.2062883098096
 30
0.0
 10
67.5652892581129
 20
554.346261622084
 30
0.0
 10
67.57511313668965
 20
554.431751326887
 30
0.0
 10
67.58606103217153
 20
554.5320804753
 30
0.0
  0
SPLINE
  5
1309
100
AcDbEntity
  8
VHH-025
100
AcDbSpline
210
0.0
220
0.0
230
1.0
 70
     8
 71
     3
 72
    11
 73
     7
 74
     5
 42
0.0000001
 43
0.0000001
 44
0.0000000001
 40
0.0
 40
0.0
 40
0.0
 40
0.0
 40
0.6629926957091156
 40
1.324539577354454
 40
2.135160944774634
 40
2.616402084268062
 40
2.616402084268062
 40
2.616402084268062
 40
2.616402084268062
 10
66.60464068749115
 20
552.7532061030797
 30
0.0
 10
66.82561306944369
 20
552.7875970665295
 30
0.0
 10
67.26707595024567
 20
552.8563039957122
 30
0.0
 10
67.86535807468059
 20
553.282164396186
 30
0.0
 10
68.21746362631866
 20
553.8653584337155
 30
0.0
 10
68.26443335296666
 20
554.2958003102686
 30
0.0
 10
68.2819303889537
 20
554.456147358077
 30
0.0
 11
66.60464068749115
 21
552.7532061030797
 31
0.0
 11
67.24993926515253
 21
552.9053542553255
 31
0.0
 11
67.79387283458163
 21
553.2818918346756
 31
0.0
 11
68.20364337253614
 21
553.9813166752001
 31
0.0
 11
68.2819303889537
 21
554.456147358077
 31
0.0
  0
SPLINE
  5
130A
100
AcDbEntity
  8
VHH-025
100
AcDbSpline
210
0.0
220
0.0
230
1.0
 70
     8
 71
     3
 72
    12
 73
     8
 74
     6
 42
0.0000001
 43
0.0000001
 44
0.0000000001
 40
0.0
 40
0.0
 40
0.0
 40
0.0
 40
0.4301022247152906
 40
0.843471988705563
 40
1.254524939527511
 40
1.659116521511917
 40
1.863361491889311
 40
1.863361491889311
 40
1.863361491889311
 40
1.863361491889311
 10
56.64378050962477
 20
556.9033544413387
 30
0.0
 10
56.78630237836293
 20
556.9217674132381
 30
0.0
 10
57.06580152333523
 20
556.957877028891
 30
0.0
 10
57.45824668875468
 20
557.1250705673635
 30
0.0
 10
57.75414393713249
 20
557.4260807858602
 30
0.0
 10
57.87828400993311
 20
557.7503294104999
 30
0.0
 10
57.91331759967365
 20
557.9501079148758
 30
0.0
 10
57.92507023586313
 20
558.0171271412182
 30
0.0
 11
56.64378050962477
 21
556.9033544413387
 31
0.0
 11
57.0672791623665
 21
556.9784331655618
 31
0.0
 11
57.4440350640034
 21
557.1485200620681
 31
0.0
 11
57.73103975096637
 21
557.4427866725436
 31
0.0
 11
57.88541505556259
 21
557.8167687757832
 31
0.0
 11
57.92507023586313
 21
558.0171271412182
 31
0.0
  0
LWPOLYLINE
  5
130B
100
AcDbEntity
  8
VHH-025
100
AcDbPolyline
 90
        4
 70
     1
 43
0.0
 10
64.112031
 20
566.035148
 10
64.862309
 20
566.035148
 10
64.862309
 20
561.770476
 10
64.112031
 20
561.770476
  0
LINE
  5
130C
100
AcDbEntity
  8
VHH-025
100
AcDbLine
 10
66.568692
 20
553.452282
 30
0.0
 11
61.66373
 21
553.200051
 31
0.0
  0
LINE
  5
130D
100
AcDbEntity
  8
VHH-025
100
AcDbLine
 10
103.461881
 20
551.255023
 30
0.0
 11
101.063685
 21
539.705033
 31
0.0
  0
LINE
  5
130E
100
AcDbEntity
  8
VHH-025
100
AcDbLine
 10
106.212425
 20
551.255023
 30
0.0
 11
103.814229
 21
539.705033
 31
0.0
  0
LINE
  5
130F
100
AcDbEntity
  8
VHH-025
100
AcDbLine
 10
99.139596
 20
551.255023
 30
0.0
 11
96.7414
 21
539.705033
 31
0.0
  0
LINE
  5
1310
100
AcDbEntity
  8
VHH-025
100
AcDbLine
 10
101.104271
 20
551.255023
 30
0.0
 11
98.706075
 21
539.705033
 31
0.0
  0
LINE
  5
1311
100
AcDbEntity
  8
VHH-025
100
AcDbLine
 10
128.322616
 20
544.402934
 30
0.0
 11
129.224729
 21
544.402934
 31
0.0
  0
LINE
  5
1312
100
AcDbEntity
  8
VHH-025
100
AcDbLine
 10
136.544201
 20
544.402934
 30
0.0
 11
137.232066
 21
540.205033
 31
0.0
  0
LINE
  5
1313
100
AcDbEntity
  8
VHH-025
100
AcDbLine
 10
136.238952
 20
544.402934
 30
0.0
 11
136.544201
 21
544.402934
 31
0.0
  0
LINE
  5
1314
100
AcDbEntity
  8
VHH-025
100
AcDbLine
 10
133.796553
 20
540.205033
 30
0.0
 11
136.238952
 21
544.402934
 31
0.0
  0
LINE
  5
1315
100
AcDbEntity
  8
VHH-025
100
AcDbLine
 10
134.262929
 20
541.006622
 30
0.0
 11
137.100718
 21
541.006622
 31
0.0
  0
LINE
  5
1316
100
AcDbEntity
  8
VHH-025
100
AcDbLine
 10
129.224729
 20
544.402934
 30
0.0
 11
129.544494
 21
540.205033
 31
0.0
  0
LINE
  5
1317
100
AcDbEntity
  8
VHH-025
100
AcDbLine
 10
131.907895
 20
544.402934
 30
0.0
 11
129.679121
 21
540.205033
 31
0.0
  0
LINE
  5
1318
100
AcDbEntity
  8
VHH-025
100
AcDbLine
 10
128.322616
 20
544.402934
 30
0.0
 11
127.439624
 21
540.205033
 31
0.0
  0
LINE
  5
1319
100
AcDbEntity
  8
VHH-025
100
AcDbLine
 10
132.817655
 20
544.402934
 30
0.0
 11
131.934663
 21
540.205033
 31
0.0
  0
LINE
  5
131A
100
AcDbEntity
  8
VHH-025
100
AcDbLine
 10
129.544494
 20
540.205033
 30
0.0
 11
129.679121
 21
540.205033
 31
0.0
  0
LINE
  5
131B
100
AcDbEntity
  8
VHH-025
100
AcDbLine
 10
131.907895
 20
544.402934
 30
0.0
 11
132.817655
 21
544.402934
 31
0.0
  0
LINE
  5
131C
100
AcDbEntity
  8
VHH-025
100
AcDbLine
 10
130.544411
 20
550.771731
 30
0.0
 11
129.673652
 21
546.557122
 31
0.0
  0
LINE
  5
131D
100
AcDbEntity
  8
VHH-025
100
AcDbLine
 10
128.448902
 20
550.755023
 30
0.0
 11
127.581594
 21
546.557122
 31
0.0
  0
LINE
  5
131E
100
AcDbEntity
  8
VHH-025
100
AcDbLine
 10
129.673652
 20
546.557122
 30
0.0
 11
132.8202
 21
546.557122
 31
0.0
  0
LINE
  5
131F
100
AcDbEntity
  8
VHH-025
100
AcDbLine
 10
118.111548
 20
544.402934
 30
0.0
 11
119.832479
 21
540.205033
 31
0.0
  0
LINE
  5
1320
100
AcDbEntity
  8
VHH-025
100
AcDbLine
 10
121.03035
 20
544.402934
 30
0.0
 11
120.158713
 21
540.205033
 31
0.0
  0
LINE
  5
1321
100
AcDbEntity
  8
VHH-025
100
AcDbLine
 10
124.52179
 20
544.402934
 30
0.0
 11
124.82704
 21
544.402934
 31
0.0
  0
LINE
  5
1322
100
AcDbEntity
  8
VHH-025
100
AcDbLine
 10
117.847124
 20
544.402934
 30
0.0
 11
118.111548
 21
544.402934
 31
0.0
  0
LINE
  5
1323
100
AcDbEntity
  8
VHH-025
100
AcDbLine
 10
119.832479
 20
540.205033
 30
0.0
 11
120.158713
 21
540.205033
 31
0.0
  0
LINE
  5
1324
100
AcDbEntity
  8
VHH-025
100
AcDbLine
 10
122.545767
 20
541.006622
 30
0.0
 11
125.383557
 21
541.006622
 31
0.0
  0
LINE
  5
1325
100
AcDbEntity
  8
VHH-025
100
AcDbLine
 10
122.079391
 20
540.205033
 30
0.0
 11
124.52179
 21
544.402934
 31
0.0
  0
LINE
  5
1326
100
AcDbEntity
  8
VHH-025
100
AcDbLine
 10
124.82704
 20
544.402934
 30
0.0
 11
125.514904
 21
540.205033
 31
0.0
  0
LINE
  5
1327
100
AcDbEntity
  8
VHH-025
100
AcDbLine
 10
120.964143
 20
550.755023
 30
0.0
 11
121.652007
 21
546.557122
 31
0.0
  0
LINE
  5
1328
100
AcDbEntity
  8
VHH-025
100
AcDbLine
 10
120.658893
 20
550.755023
 30
0.0
 11
120.964143
 21
550.755023
 31
0.0
  0
LINE
  5
1329
100
AcDbEntity
  8
VHH-025
100
AcDbLine
 10
118.216495
 20
546.557122
 30
0.0
 11
120.658893
 21
550.755023
 31
0.0
  0
LINE
  5
132A
100
AcDbEntity
  8
VHH-025
100
AcDbLine
 10
118.68287
 20
547.358711
 30
0.0
 11
121.52066
 21
547.358711
 31
0.0
  0
LINE
  5
132B
100
AcDbEntity
  8
VHH-025
100
AcDbLine
 10
123.248678
 20
550.755023
 30
0.0
 11
123.615086
 21
546.557122
 31
0.0
  0
LINE
  5
132C
100
AcDbEntity
  8
VHH-025
100
AcDbLine
 10
126.258133
 20
550.755023
 30
0.0
 11
124.132885
 21
546.557122
 31
0.0
  0
LINE
  5
132D
100
AcDbEntity
  8
VHH-025
100
AcDbLine
 10
123.615086
 20
546.557122
 30
0.0
 11
124.132885
 21
546.557122
 31
0.0
  0
LINE
  5
132E
100
AcDbEntity
  8
VHH-025
100
AcDbLine
 10
113.750965
 20
550.755023
 30
0.0
 11
115.226983
 21
550.755023
 31
0.0
  0
LINE
  5
132F
100
AcDbEntity
  8
VHH-025
100
AcDbLine
 10
112.879328
 20
546.557122
 30
0.0
 11
113.750965
 21
550.755023
 31
0.0
  0
LINE
  5
1330
100
AcDbEntity
  8
VHH-025
100
AcDbLine
 10
113.268899
 20
548.433337
 30
0.0
 11
114.785847
 21
548.433337
 31
0.0
  0
LINE
  5
1331
100
AcDbEntity
  8
VHH-025
100
AcDbLine
 10
107.771174
 20
546.557122
 30
0.0
 11
109.724987
 21
546.557122
 31
0.0
  0
LINE
  5
1332
100
AcDbEntity
  8
VHH-025
100
AcDbLine
 10
108.64281
 20
550.755023
 30
0.0
 11
107.771174
 21
546.557122
 31
0.0
  0
LINE
  5
1333
100
AcDbEntity
  8
VHH-025
100
AcDbLine
 10
107.323886
 20
544.402934
 30
0.0
 11
106.45225
 21
540.205033
 31
0.0
  0
LINE
  5
1334
100
AcDbEntity
  8
VHH-025
100
AcDbLine
 10
107.323886
 20
544.402934
 30
0.0
 11
108.740695
 21
544.402934
 31
0.0
  0
LINE
  5
1335
100
AcDbEntity
  8
VHH-025
100
AcDbLine
 10
106.45225
 20
540.205033
 30
0.0
 11
108.406063
 21
540.205033
 31
0.0
  0
LINE
  5
1336
100
AcDbEntity
  8
VHH-025
100
AcDbLine
 10
106.930474
 20
542.508217
 30
0.0
 11
108.58295
 21
542.508217
 31
0.0
  0
LINE
  5
1337
100
AcDbEntity
  8
VHH-025
100
AcDbLine
 10
108.64281
 20
550.755023
 30
0.0
 11
110.059619
 21
550.755023
 31
0.0
  0
LINE
  5
1338
100
AcDbEntity
  8
VHH-025
100
AcDbLine
 10
108.249399
 20
548.860306
 30
0.0
 11
109.901875
 21
548.860306
 31
0.0
  0
LINE
  5
1339
100
AcDbEntity
  8
VHH-025
100
AcDbLine
 10
117.847124
 20
544.402934
 30
0.0
 11
116.975487
 21
540.205033
 31
0.0
  0
ARC
  5
133A
100
AcDbEntity
  8
VHH-025
100
AcDbCircle
 10
102.391738
 20
573.551541
 30
0.0
 40
0.25
100
AcDbArc
 50
225.0
 51
315.0
  0
ARC
  5
133B
100
AcDbEntity
  8
VHH-025
100
AcDbCircle
 10
59.101692
 20
554.632858
 30
0.0
 40
0.5
100
AcDbArc
 50
273.09421
 51
359.745727
  0
LINE
  5
133C
100
AcDbEntity
  8
VHH-025
100
AcDbLine
 10
57.984907
 20
556.492136
 30
0.0
 11
59.21569
 21
554.13829
 31
0.0
  0
ARC
  5
133D
100
AcDbEntity
  8
VHH-025
100
AcDbCircle
 10
128.891738
 20
571.551541
 30
0.0
 40
0.75
100
AcDbArc
 50
270.0
 51
0.0
  0
CIRCLE
  5
133E
100
AcDbEntity
  8
VHH-025
100
AcDbCircle
 10
127.724775
 20
573.154619
 30
0.0
 40
0.025
  0
CIRCLE
  5
133F
100
AcDbEntity
  8
VHH-025
100
AcDbCircle
 10
121.524775
 20
573.154619
 30
0.0
 40
0.025
  0
LINE
  5
1340
100
AcDbEntity
  8
VHH-025
100
AcDbLine
 10
123.442227
 20
573.154619
 30
0.0
 11
126.154284
 21
573.154619
 31
0.0
  0
ARC
  5
1341
100
AcDbEntity
  8
VHH-025
100
AcDbCircle
 10
115.891738
 20
571.551541
 30
0.0
 40
0.75
100
AcDbArc
 50
180.0
 51
270.0
  0
LINE
  5
1342
100
AcDbEntity
  8
VHH-025
100
AcDbLine
 10
117.242227
 20
573.154619
 30
0.0
 11
119.954284
 21
573.154619
 31
0.0
  0
LINE
  5
1343
100
AcDbEntity
  8
VHH-025
100
AcDbLine
 10
115.891738
 20
570.801541
 30
0.0
 11
128.891738
 21
570.801541
 31
0.0
  0
SPLINE
  5
1344
100
AcDbEntity
  8
VHH-025
100
AcDbSpline
210
0.0
220
0.0
230
1.0
 70
     8
 71
     3
 72
    20
 73
    16
 74
     0
 42
0.0000001
 43
0.0000001
 40
3.141592653589793
 40
3.141592653589793
 40
3.141592653589793
 40
3.141592653589793
 40
3.566852563487359
 40
3.566852563487359
 40
4.097334864786621
 40
4.097334864786621
 40
4.627817166085884
 40
4.627817166085884
 40
5.158299467385146
 40
5.158299467385146
 40
5.688781768684408
 40
5.688781768684408
 40
6.21926406998367
 40
6.21926406998367
 40
6.283185307179586
 40
6.283185307179586
 40
6.283185307179586
 40
6.283185307179586
 10
143.7917384281217
 20
574.7015412051114
 30
0.0
 10
143.7917384281217
 20
574.6079094179322
 30
0.0
 10
143.8148001891095
 20
574.5140398747353
 30
0.0
 10
143.918894668518
 20
574.3155401953499
 30
0.0
 10
144.013984812107
 20
574.2142549173441
 30
0.0
 10
144.2605067054537
 20
574.063844031728
 30
0.0
 10
144.4114058337045
 20
574.0156663583693
 30
0.0
 10
144.7227439904609
 20
573.9928720686584
 30
0.0
 10
144.8822965658837
 20
574.0183587110904
 30
0.0
 10
145.1591968695802
 20
574.1326732638571
 30
0.0
 10
145.2757745374528
 20
574.2208567932839
 30
0.0
 10
145.4366256148032
 20
574.4263696046273
 30
0.0
 10
145.4815289713415
 20
574.5426684718823
 30
0.0
 10
145.491217654614
 20
574.673393409761
 30
0.0
 10
145.4917384281225
 20
574.6874673186766
 30
0.0
 10
145.4917384281225
 20
574.7015412051114
 30
0.0
  0
SPLINE
  5
1345
100
AcDbEntity
  8
VHH-025
100
AcDbSpline
210
0.0
220
0.0
230
1.0
 70
     8
 71
     3
 72
    12
 73
     8
 74
     0
 42
0.0000001
 43
0.0000001
 40
1.820596868471746
 40
1.820596868471746
 40
1.820596868471746
 40
1.820596868471746
 40
4.503295473557569
 40
6.216955522489968
 40
7.774552440697402
 40
9.232972112989187
 40
10.8164521343443
 40
10.8164521343443
 40
10.8164521343443
 40
10.8164521343443
 10
140.8552435715819
 20
548.4333369542228
 30
0.0
 10
141.3180640375903
 20
548.4479974493215
 30
0.0
 10
142.0300491668012
 20
548.5817068106935
 30
0.0
 10
142.7391405727712
 20
549.364923090603
 30
0.0
 10
142.7925741030894
 20
550.2671833980129
 30
0.0
 10
142.0707351622122
 20
550.7518270163973
 30
0.0
 10
141.5614770625716
 20
550.7539290813456
 30
0.0
 10
141.2963795551886
 20
550.7550233244783
 30
0.0
  0
SPLINE
  5
1346
100
AcDbEntity
  8
VHH-025
100
AcDbSpline
210
0.0
220
0.0
230
1.0
 70
     8
 71
     3
 72
    12
 73
     8
 74
     0
 42
0.0000001
 43
0.0000001
 40
0.3004138362153372
 40
0.3004138362153372
 40
0.3004138362153372
 40
0.3004138362153372
 40
0.6531836346659445
 40
2.201425060069765
 40
3.775834883110177
 40
5.170639203720888
 40
5.549375987942882
 40
5.549375987942882
 40
5.549375987942882
 40
5.549375987942882
 10
142.0735002027477
 20
546.557122045745
 30
0.0
 10
142.0635859139629
 20
546.6152425106729
 30
0.0
 10
142.0163752668659
 20
546.9276352444977
 30
0.0
 10
142.063207236747
 20
547.481448833927
 30
0.0
 10
141.921276934202
 20
548.3627740513156
 30
0.0
 10
141.2851406312138
 20
548.4342724435164
 30
0.0
 10
140.9767176820341
 20
548.4320828407926
 30
0.0
 10
140.8552435715819
 20
548.4333369542228
 30
0.0
  0
LINE
  5
1347
100
AcDbEntity
  8
VHH-025
100
AcDbLine
 10
139.174103
 20
540.17532
 30
0.0
 11
140.051461
 21
544.402934
 31
0.0
  0
LINE
  5
1348
100
AcDbEntity
  8
VHH-025
100
AcDbLine
 10
138.948725
 20
546.557122
 30
0.0
 11
139.820361
 21
550.755023
 31
0.0
  0
LINE
  5
1349
100
AcDbEntity
  8
VHH-025
100
AcDbLine
 10
139.338295
 20
548.433337
 30
0.0
 11
140.855244
 21
548.433337
 31
0.0
  0
LINE
  5
134A
100
AcDbEntity
  8
VHH-025
100
AcDbLine
 10
139.820361
 20
550.755023
 30
0.0
 11
141.29638
 21
550.755023
 31
0.0
  0
CIRCLE
  5
134B
100
AcDbEntity
  8
VHH-025
100
AcDbCircle
 10
144.488133
 20
544.007773
 30
0.0
 40
0.724411
  0
CIRCLE
  5
134C
100
AcDbEntity
  8
VHH-025
100
AcDbCircle
 10
145.43611
 20
550.261906
 30
0.0
 40
0.724411
  0
ELLIPSE
  5
134D
100
AcDbEntity
  8
VHH-025
100
AcDbEllipse
 10
352.390408
 20
462.660261
 30
0.0
 11
24.96758417586084
 21
0.0
 31
0.0
210
0.0
220
0.0
230
1.0
 40
0.898794
 41
-0.9694238536030034
 42
4.111016507192796
  0
ELLIPSE
  5
134E
100
AcDbEntity
  8
VHH-025
100
AcDbEllipse
 10
352.390408
 20
461.614618
 30
0.0
 11
22.61260194047523
 21
0.0
 31
0.0
210
0.0
220
0.0
230
1.0
 40
0.898794
 41
0.0
 42
6.283185307179586
  0
ELLIPSE
  5
134F
100
AcDbEntity
  8
VHH-025
100
AcDbEllipse
 10
352.390408
 20
461.614618
 30
0.0
 11
21.50000000000009
 21
0.0
 31
0.0
210
0.0
220
0.0
230
1.0
 40
0.898794
 41
0.0
 42
6.283185307179586
  0
ELLIPSE
  5
1350
100
AcDbEntity
  8
VHH-025
100
AcDbEllipse
 10
352.390408
 20
443.176818
 30
0.0
 11
58.00000000000002
 21
0.0
 31
0.0
210
0.0
220
0.0
230
1.0
 40
0.898794
 41
1.874822050524494
 42
3.307168791283195
  0
ELLIPSE
  5
1351
100
AcDbEntity
  8
VHH-025
100
AcDbEllipse
 10
352.390408
 20
462.801175
 30
0.0
 11
68.74999999999994
 21
0.0
 31
0.0
210
0.0
220
0.0
230
1.0
 40
0.898794
 41
1.790747341486783
 42
3.141592653589793
  0
ELLIPSE
  5
1352
100
AcDbEntity
  8
VHH-025
100
AcDbEllipse
 10
352.390408
 20
462.362804
 30
0.0
 11
68.75
 21
0.0
 31
0.0
210
0.0
220
0.0
230
1.0
 40
0.898794
 41
1.790747341486783
 42
3.784237415757003
  0
ELLIPSE
  5
1353
100
AcDbEntity
  8
VHH-025
100
AcDbEllipse
 10
352.390408
 20
462.362804
 30
0.0
 11
66.25000000000001
 21
0.0
 31
0.0
210
0.0
220
0.0
230
1.0
 40
0.898794
 41
1.799191941082665
 42
3.511494464577409
  0
LINE
  5
1354
100
AcDbEntity
  8
VHH-025
100
AcDbLine
 10
228.599918
 20
503.049161
 30
0.0
 11
228.599918
 21
406.706543
 31
0.0
  0
LWPOLYLINE
  5
1355
100
AcDbEntity
  8
VHH-025
100
AcDbPolyline
 90
        7
 70
     0
 43
0.0
 10
296.505843
 20
427.19589
 10
299.610796
 20
421.126773
 10
303.517346
 20
415.443645
 10
310.350859
 20
408.187276
 10
318.463911
 20
402.133964
 10
327.555874
 20
397.482417
 10
337.390408
 20
394.332416
  0
LINE
  5
1356
100
AcDbEntity
  8
VHH-025
100
AcDbLine
 10
283.140408
 20
385.5
 30
0.0
 11
335.867194
 21
385.5
 31
0.0
  0
LINE
  5
1357
100
AcDbEntity
  8
VHH-025
100
AcDbLine
 10
296.505837
 20
427.195796
 30
0.0
 11
290.621369
 21
440.835826
 31
0.0
  0
LINE
  5
1358
100
AcDbEntity
  8
VHH-025
100
AcDbLine
 10
283.640408
 20
462.801175
 30
0.0
 11
283.640408
 21
462.362804
 31
0.0
  0
SPLINE
  5
1359
100
AcDbEntity
  8
VHH-025
100
AcDbSpline
210
0.0
220
0.0
230
1.0
 70
     8
 71
     3
 72
    14
 73
    10
 74
     8
 42
0.0000001
 43
0.0000001
 44
0.0000000001
 40
0.0
 40
0.0
 40
0.0
 40
0.0
 40
6.66851083100014
 40
11.72772936545906
 40
13.61693149748113
 40
14.4338896124669
 40
16.23491697104791
 40
18.01579771733774
 40
19.12641922158227
 40
19.12641922158227
 40
19.12641922158227
 40
19.12641922158227
 10
233.4803432979488
 20
385.9851389888817
 30
0.0
 10
233.0787506350064
 20
383.796137840897
 30
0.0
 10
232.372480496815
 20
379.9464008164176
 30
0.0
 10
231.5215468434542
 20
375.5117558875618
 30
0.0
 10
231.1555102173633
 20
372.9147307506465
 30
0.0
 10
230.4063471873508
 20
371.5844757337938
 30
0.0
 10
229.1340886860836
 20
370.7356692746973
 30
0.0
 10
228.6031396389211
 20
369.1740985358995
 30
0.0
 10
228.5285632791
 20
368.2168504587346
 30
0.0
 10
228.4999186156174
 20
367.8491729654179
 30
0.0
 11
233.4803432979488
 21
385.9851389888817
 31
0.0
 11
232.2669632196975
 21
379.4279486234227
 31
0.0
 11
231.3800083651713
 21
374.44708491665
 31
0.0
 11
230.9479187120032
 21
372.6079592474088
 31
0.0
 11
230.538554932993
 21
371.9009642982928
 31
0.0
 11
229.2877128847776
 21
370.6051658121177
 31
0.0
 11
228.6231176955543
 21
368.9529402019279
 31
0.0
 11
228.4999186156174
 21
367.8491729654179
 31
0.0
  0
SPLINE
  5
135A
100
AcDbEntity
  8
VHH-025
100
AcDbSpline
210
0.0
220
0.0
230
-1.0
 70
     8
 71
     3
 72
    13
 73
     9
 74
     7
 42
0.0000001
 43
0.0000001
 44
0.0000000001
 40
0.0
 40
0.0
 40
0.0
 40
0.0
 40
3.191871827525061
 40
8.851217422000795
 40
13.24422149420587
 40
15.17417334972457
 40
16.19007197052217
 40
17.17775719291025
 40
17.17775719291025
 40
17.17775719291025
 40
17.17775719291025
 10
226.9774159234339
 20
386.0001236641583
 30
0.0
 10
226.9786303620336
 20
384.9361797640103
 30
0.0
 10
226.9819980599464
 20
381.9858110481325
 30
0.0
 10
227.0443155052069
 20
377.5707983032301
 30
0.0
 10
227.2127306431535
 20
373.5803650020897
 30
0.0
 10
227.4342318974452
 20
371.1409716258462
 30
0.0
 10
227.6925304188325
 20
369.8534213080438
 30
0.0
 10
227.8807489494954
 20
369.2124027867562
 30
0.0
 10
227.9735330183766
 20
368.8964067664719
 30
0.0
 11
226.9774159234339
 21
386.0001236641583
 31
0.0
 11
226.9860372013954
 21
382.8082634797338
 31
0.0
 11
227.080064594299
 21
377.1496990498544
 31
0.0
 11
227.2965703323179
 21
372.7620333784734
 31
0.0
 11
227.5066852610307
 21
370.8435532817948
 31
0.0
 11
227.7089476805686
 21
369.8479931774409
 31
0.0
 11
227.9735330183766
 21
368.8964067664719
 31
0.0
  0
LWPOLYLINE
  5
135B
100
AcDbEntity
  8
VHH-025
100
AcDbPolyline
 90
        4
 70
     0
 43
0.0
 10
273.891697
 20
374.923717
 10
273.685379
 20
374.259974
 10
273.396457
 20
372.350039
 10
273.39596
 20
372.249034
  0
LWPOLYLINE
  5
135C
100
AcDbEntity
  8
VHH-025
100
AcDbPolyline
 90
        2
 70
     0
 43
0.0
 10
281.390926
 20
373.269654
 10
281.35122
 20
374.062958
  0
LWPOLYLINE
  5
135D
100
AcDbEntity
  8
VHH-025
100
AcDbPolyline
 90
        9
 70
     0
 43
0.0
 10
282.951802
 20
381.0
 10
282.966251
 20
380.832967
 10
283.008225
 20
380.318711
 10
283.068701
 20
379.477501
 10
283.13235
 20
378.378846
 10
283.186223
 20
377.044746
 10
283.216643
 20
375.476189
 10
283.209302
 20
373.771197
 10
283.159157
 20
372.048627
  0
LINE
  5
135E
100
AcDbEntity
  8
VHH-025
100
AcDbLine
 10
271.890408
 20
377.85083
 30
0.0
 11
271.890408
 21
364.0
 31
0.0
  0
LINE
  5
135F
100
AcDbEntity
  8
VHH-025
100
AcDbLine
 10
272.890408
 20
379.313537
 30
0.0
 11
272.890408
 21
362.0
 31
0.0
  0
LWPOLYLINE
  5
1360
100
AcDbEntity
  8
VHH-025
100
AcDbPolyline
 90
        9
 70
     0
 43
0.0
 10
273.39596
 20
372.249034
 10
273.403582
 20
370.42093
 10
273.412161
 20
368.498001
 10
273.418458
 20
366.71359
 10
273.420676
 20
365.180017
 10
273.418458
 20
363.901005
 10
273.412161
 20
362.900384
 10
273.403582
 20
362.259689
 10
273.39596
 20
362.010082
  0
LWPOLYLINE
  5
1361
100
AcDbEntity
  8
VHH-025
100
AcDbPolyline
 90
        2
 70
     0
 43
0.0
 10
273.39596
 20
362.010082
 10
273.395921
 20
362.009067
  0
LWPOLYLINE
  5
1362
100
AcDbEntity
  8
VHH-025
100
AcDbPolyline
 90
        9
 70
     0
 43
0.0
 10
283.159157
 20
372.048627
 10
283.064987
 20
370.308469
 10
282.928933
 20
368.586593
 10
282.766272
 20
367.002113
 10
282.599697
 20
365.653255
 10
282.443314
 20
364.542881
 10
282.311664
 20
363.691247
 10
282.226048
 20
363.16969
 10
282.197379
 20
363.0
  0
LINE
  5
1363
100
AcDbEntity
  8
VHH-025
100
AcDbLine
 10
271.890408
 20
364.0
 30
0.0
 11
272.890408
 21
362.0
 31
0.0
  0
LINE
  5
1364
100
AcDbEntity
  8
VHH-025
100
AcDbLine
 10
273.39599
 20
362.0
 30
0.0
 11
272.890408
 21
362.0
 31
0.0
  0
LINE
  5
1365
100
AcDbEntity
  8
VHH-025
100
AcDbLine
 10
282.197379
 20
363.0
 30
0.0
 11
281.697567
 21
363.0
 31
0.0
  0
LINE
  5
1366
100
AcDbEntity
  8
VHH-025
100
AcDbLine
 10
282.197379
 20
363.0
 30
0.0
 11
282.009246
 21
358.511282
 31
0.0
  0
SPLINE
  5
1367
100
AcDbEntity
  8
VHH-025
100
AcDbSpline
210
0.0
220
0.0
230
1.0
 70
     8
 71
     3
 72
    11
 73
     7
 74
     5
 42
0.0000001
 43
0.0000001
 44
0.0000000001
 40
0.0
 40
0.0
 40
0.0
 40
0.0
 40
0.3841279782305386
 40
0.6571598466979865
 40
0.8605649504657211
 40
1.063282916679442
 40
1.063282916679442
 40
1.063282916679442
 40
1.063282916679442
 10
232.7911504495232
 20
387.5
 30
0.0
 10
232.9174754178601
 20
387.5107752757317
 30
0.0
 10
233.1335901023694
 20
387.5292094407739
 30
0.0
 10
233.424160416579
 20
387.618491017546
 30
0.0
 10
233.5447352812937
 20
387.8286078052202
 30
0.0
 10
233.5530275509297
 20
387.9643318170882
 30
0.0
 10
233.5571666707191
 20
388.0320790042978
 30
0.0
 11
232.7911504495232
 21
387.5
 31
0.0
 11
233.1720987735479
 21
387.5493221865108
 31
0.0
 11
233.4226174635723
 21
387.6578891573044
 31
0.0
 11
233.5288508859366
 21
387.8313483634929
 31
0.0
 11
233.5571666707191
 21
388.0320790042978
 31
0.0
  0
SPLINE
  5
1368
100
AcDbEntity
  8
VHH-025
100
AcDbSpline
210
0.0
220
0.0
230
1.0
 70
     8
 71
     3
 72
    10
 73
     6
 74
     4
 42
0.0000001
 43
0.0000001
 44
0.0000000001
 40
0.0
 40
0.0
 40
0.0
 40
0.0
 40
0.4164111744385085
 40
0.9163436501227788
 40
1.254422898232775
 40
1.254422898232775
 40
1.254422898232775
 40
1.254422898232775
 10
232.5633383637914
 20
386.5
 30
0.0
 10
232.6958555688091
 20
386.5057205132844
 30
0.0
 10
232.9874694994721
 20
386.5183089267216
 30
0.0
 10
233.5116953390904
 20
386.4217752936943
 30
0.0
 10
233.4893557593562
 20
386.110654512047
 30
0.0
 10
233.4803432979488
 20
385.9851389888817
 30
0.0
 11
232.5633383637914
 21
386.5
 31
0.0
 11
232.9797495382299
 21
386.4999999840056
 31
0.0
 11
233.4467465510224
 21
386.3215447507209
 31
0.0
 11
233.4803432979488
 21
385.9851389888817
 31
0.0
  0
LWPOLYLINE
  5
1369
100
AcDbEntity
  8
VHH-025
100
AcDbPolyline
 90
        7
 70
     0
 43
0.0
 10
276.197982
 20
379.069332
 10
275.835472
 20
378.582591
 10
275.270164
 20
377.741752
 10
274.734745
 20
376.82325
 10
274.266835
 20
375.870355
 10
273.931856
 20
375.037353
 10
273.891697
 20
374.923717
  0
LWPOLYLINE
  5
136A
100
AcDbEntity
  8
VHH-025
100
AcDbPolyline
 90
        2
 70
     0
 43
0.0
 10
276.390408
 20
379.073776
 10
276.197982
 20
379.069332
  0
LWPOLYLINE
  5
136B
100
AcDbEntity
  8
VHH-025
100
AcDbPolyline
 90
        8
 70
     0
 43
0.0
 10
276.582834
 20
379.313537
 10
276.575079
 20
379.246132
 10
276.550633
 20
379.180726
 10
276.52196
 20
379.138527
 10
276.499755
 20
379.116226
 10
276.472595
 20
379.096731
 10
276.42969
 20
379.078822
 10
276.390408
 20
379.073776
  0
LWPOLYLINE
  5
136C
100
AcDbEntity
  8
VHH-025
100
AcDbPolyline
 90
        6
 70
     0
 43
0.0
 10
281.35122
 20
374.062958
 10
281.263231
 20
374.766751
 10
280.993175
 20
376.177254
 10
280.732782
 20
377.468344
 10
280.653792
 20
378.050798
 10
280.626476
 20
378.582183
  0
LINE
  5
136D
100
AcDbEntity
  8
VHH-025
100
AcDbLine
 10
282.951802
 20
381.0
 30
0.0
 11
280.626476
 21
381.0
 31
0.0
  0
ARC
  5
136E
100
AcDbEntity
  8
VHH-025
100
AcDbCircle
 10
278.390408
 20
379.0
 30
0.0
 40
3.0
100
AcDbArc
 50
41.810315
 51
90.0
  0
LINE
  5
136F
100
AcDbEntity
  8
VHH-025
100
AcDbLine
 10
276.582834
 20
382.0
 30
0.0
 11
276.582834
 21
379.313537
 31
0.0
  0
LINE
  5
1370
100
AcDbEntity
  8
VHH-025
100
AcDbLine
 10
276.197982
 20
379.069332
 30
0.0
 11
276.197982
 21
382.0
 31
0.0
  0
LINE
  5
1371
100
AcDbEntity
  8
VHH-025
100
AcDbLine
 10
280.626476
 20
381.0
 30
0.0
 11
280.626476
 21
378.582183
 31
0.0
  0
ARC
  5
1372
100
AcDbEntity
  8
VHH-025
100
AcDbCircle
 10
276.390408
 20
379.006178
 30
0.0
 40
3.0
100
AcDbArc
 50
86.322401
 51
93.677599
  0
LINE
  5
1373
100
AcDbEntity
  8
VHH-025
100
AcDbLine
 10
278.390408
 20
382.0
 30
0.0
 11
276.582834
 21
382.0
 31
0.0
  0
LINE
  5
1374
100
AcDbEntity
  8
VHH-025
100
AcDbLine
 10
272.890408
 20
382.0
 30
0.0
 11
272.890408
 21
379.313537
 31
0.0
  0
LINE
  5
1375
100
AcDbEntity
  8
VHH-025
100
AcDbLine
 10
271.890408
 20
380.0
 30
0.0
 11
272.890408
 21
382.0
 31
0.0
  0
LINE
  5
1376
100
AcDbEntity
  8
VHH-025
100
AcDbLine
 10
271.890408
 20
380.0
 30
0.0
 11
271.890408
 21
377.85083
 31
0.0
  0
LINE
  5
1377
100
AcDbEntity
  8
VHH-025
100
AcDbLine
 10
276.197982
 20
382.0
 30
0.0
 11
272.890408
 21
382.0
 31
0.0
  0
LINE
  5
1378
100
AcDbEntity
  8
VHH-025
100
AcDbLine
 10
231.401779
 20
387.499973
 30
0.0
 11
231.489409
 21
386.5
 31
0.0
  0
LINE
  5
1379
100
AcDbEntity
  8
VHH-025
100
AcDbLine
 10
283.140408
 20
385.5
 30
0.0
 11
282.951802
 21
381.0
 31
0.0
  0
SPLINE
  5
137A
100
AcDbEntity
  8
VHH-025
100
AcDbSpline
210
0.0
220
0.0
230
1.0
 70
     8
 71
     3
 72
    15
 73
    11
 74
     9
 42
0.0000001
 43
0.0000001
 44
0.0000000001
 40
0.0
 40
0.0
 40
0.0
 40
0.0
 40
3.524230532082788
 40
10.56230341439629
 40
14.08777785911621
 40
14.66940041025858
 40
16.34667952900468
 40
17.98151335014002
 40
19.07167367623084
 40
19.63693971326625
 40
19.63693971326625
 40
19.63693971326625
 40
19.63693971326625
 10
233.5571666707191
 20
388.0320790042969
 30
0.0
 10
233.4277748583775
 20
389.2003657571216
 30
0.0
 10
233.0399808225305
 20
392.701782320544
 30
0.0
 10
232.0454402171046
 20
397.2914198702044
 30
0.0
 10
231.4418989088825
 20
400.9694239614212
 30
0.0
 10
230.6804791443233
 20
402.7671923705856
 30
0.0
 10
229.5297149238689
 20
403.5168504832748
 30
0.0
 10
228.9075190801715
 20
404.8982947199794
 30
0.0
 10
228.66852229355
 20
405.9688291793042
 30
0.0
 10
228.6173810858187
 20
406.5187619337388
 30
0.0
 10
228.5999182807872
 20
406.7065433510578
 30
0.0
 11
233.5571666707191
 21
388.0320790042969
 31
0.0
 11
233.1291505128565
 21
391.5302217989628
 31
0.0
 11
231.8745704333632
 21
398.455573683228
 31
0.0
 11
231.0480065117326
 21
401.8827827728273
 31
0.0
 11
230.8001582992829
 21
402.4089539004871
 31
0.0
 11
229.6481522328649
 21
403.6280302988798
 31
0.0
 11
228.8979162472578
 21
405.0805548558591
 31
0.0
 11
228.6603641165975
 21
406.1445184463082
 31
0.0
 11
228.5999182807872
 21
406.7065433510578
 31
0.0
  0
SPLINE
  5
137B
100
AcDbEntity
  8
VHH-025
100
AcDbSpline
210
0.0
220
0.0
230
-1.0
 70
     8
 71
     3
 72
    13
 73
     9
 74
     7
 42
0.0000001
 43
0.0000001
 44
0.0000000001
 40
0.0
 40
0.0
 40
0.0
 40
0.0
 40
3.853325905628685
 40
7.478466687706884
 40
11.60106584746568
 40
14.07178639561743
 40
16.56731397739674
 40
17.70441817269797
 40
17.70441817269797
 40
17.70441817269797
 40
17.70441817269797
 10
227.0775307504773
 20
388.0001282562016
 30
0.0
 10
227.0796211318191
 20
389.2845892633653
 30
0.0
 10
227.0836781069134
 20
391.7774484424191
 30
0.0
 10
227.1241241700987
 20
395.6440826778792
 30
0.0
 10
227.2279176416862
 20
399.0500652145589
 30
0.0
 10
227.3938901773047
 20
402.0729481233017
 30
0.0
 10
227.6337134300878
 20
404.1030503465848
 30
0.0
 10
227.9674401082116
 20
405.2680429028109
 30
0.0
 10
228.0719048679411
 20
405.632714580116
 30
0.0
 11
227.0775307504773
 21
388.0001282562016
 31
0.0
 11
227.0896469033668
 21
391.8534351131529
 31
0.0
 11
227.133705180021
 21
395.4783081534324
 31
0.0
 11
227.2655856251103
 21
399.5987973695628
 31
0.0
 11
227.4192901902697
 21
402.0647322701043
 31
0.0
 11
227.777224386843
 21
404.5344571580917
 31
0.0
 11
228.0719048679411
 21
405.632714580116
 31
0.0
  0
ELLIPSE
  5
137C
100
AcDbEntity
  8
VHH-025
100
AcDbEllipse
 10
352.390408
 20
462.10235
 30
0.0
 11
21.50000000000003
 21
0.0
 31
0.0
210
0.0
220
0.0
230
1.0
 40
0.898794
 41
-3.128972499420414
 42
-0.0126201541693642
  0
LWPOLYLINE
  5
137D
100
AcDbEntity
  8
VHH-025
100
AcDbPolyline
 90
       13
 70
     0
 43
0.0
 10
364.390408
 20
443.492538
 10
363.671675
 20
443.135248
 10
361.514902
 20
442.224806
 10
359.269808
 20
441.510176
 10
356.97299
 20
441.001389
 10
354.665524
 20
440.701205
 10
352.390408
 20
440.603895
 10
350.115292
 20
440.701205
 10
347.807826
 20
441.001389
 10
345.511008
 20
441.510176
 10
343.265914
 20
442.224806
 10
341.109141
 20
443.135248
 10
340.390408
 20
443.492538
  0
LWPOLYLINE
  5
137E
100
AcDbEntity
  8
VHH-025
100
AcDbPolyline
 90
        5
 70
     0
 43
0.0
 10
340.390408
 20
443.492538
 10
339.90197
 20
443.727955
 10
339.425469
 20
443.920799
 10
338.780856
 20
444.10553
 10
338.264381
 20
444.156547
  0
LWPOLYLINE
  5
137F
100
AcDbEntity
  8
VHH-025
100
AcDbPolyline
 90
        4
 70
     0
 43
0.0
 10
366.516435
 20
444.156547
 10
365.961505
 20
444.097632
 10
365.275622
 20
443.891396
 10
364.390408
 20
443.492538
  0
LINE
  5
1380
100
AcDbEntity
  8
VHH-025
100
AcDbLine
 10
355.992825
 20
418.3
 30
0.0
 11
348.792825
 21
418.3
 31
0.0
  0
ARC
  5
1381
100
AcDbEntity
  8
VHH-025
100
AcDbCircle
 10
347.784052
 20
418.047246
 30
0.0
 40
1.0
100
AcDbArc
 50
30.0
 51
80.0
  0
LINE
  5
1382
100
AcDbEntity
  8
VHH-025
100
AcDbLine
 10
348.792825
 20
418.3
 30
0.0
 11
348.650078
 21
418.547246
 31
0.0
  0
ARC
  5
1383
100
AcDbEntity
  8
VHH-025
100
AcDbCircle
 10
357.001598
 20
418.047246
 30
0.0
 40
1.0
100
AcDbArc
 50
100.0
 51
150.0
  0
LINE
  5
1384
100
AcDbEntity
  8
VHH-025
100
AcDbLine
 10
355.992825
 20
418.3
 30
0.0
 11
356.135573
 21
418.547246
 31
0.0
  0
LINE
  5
1385
100
AcDbEntity
  8
VHH-025
100
AcDbLine
 10
347.890408
 20
406.988038
 30
0.0
 11
347.890408
 21
404.488868
 31
0.0
  0
LINE
  5
1386
100
AcDbEntity
  8
VHH-025
100
AcDbLine
 10
356.890408
 20
406.988038
 30
0.0
 11
356.890408
 21
404.488868
 31
0.0
  0
LINE
  5
1387
100
AcDbEntity
  8
VHH-025
100
AcDbLine
 10
356.890408
 20
404.488868
 30
0.0
 11
347.890408
 21
404.488868
 31
0.0
  0
LINE
  5
1388
100
AcDbEntity
  8
VHH-025
100
AcDbLine
 10
357.890408
 20
430.53187
 30
0.0
 11
346.890408
 21
430.53187
 31
0.0
  0
LINE
  5
1389
100
AcDbEntity
  8
VHH-025
100
AcDbLine
 10
347.890408
 20
427.835487
 30
0.0
 11
356.890408
 21
427.835487
 31
0.0
  0
LINE
  5
138A
100
AcDbEntity
  8
VHH-025
100
AcDbLine
 10
346.890408
 20
406.988038
 30
0.0
 11
357.890408
 21
406.988038
 31
0.0
  0
LINE
  5
138B
100
AcDbEntity
  8
VHH-025
100
AcDbLine
 10
357.890408
 20
430.53187
 30
0.0
 11
357.890408
 21
406.988038
 31
0.0
  0
LINE
  5
138C
100
AcDbEntity
  8
VHH-025
100
AcDbLine
 10
346.890408
 20
430.53187
 30
0.0
 11
346.890408
 21
406.988038
 31
0.0
  0
LINE
  5
138D
100
AcDbEntity
  8
VHH-025
100
AcDbLine
 10
347.890408
 20
427.835487
 30
0.0
 11
347.890408
 21
406.988038
 31
0.0
  0
LINE
  5
138E
100
AcDbEntity
  8
VHH-025
100
AcDbLine
 10
356.890408
 20
427.835487
 30
0.0
 11
356.890408
 21
406.988038
 31
0.0
  0
LWPOLYLINE
  5
138F
100
AcDbEntity
  8
VHH-025
100
AcDbPolyline
 90
        5
 70
     0
 43
0.0
 10
337.390408
 20
385.5
 10
337.240394
 20
385.5
 10
336.813002
 20
385.5
 10
336.377264
 20
385.5
 10
335.867194
 20
385.5
  0
LWPOLYLINE
  5
1390
100
AcDbEntity
  8
VHH-025
100
AcDbPolyline
 90
        5
 70
     0
 43
0.0
 10
368.913622
 20
385.5
 10
368.212429
 20
385.5
 10
367.687118
 20
385.5
 10
367.466015
 20
385.5
 10
367.390408
 20
385.5
  0
ARC
  5
1391
100
AcDbEntity
  8
VHH-025
100
AcDbCircle
 10
364.390408
 20
387.327502
 30
0.0
 40
3.0
100
AcDbArc
 50
270.0
 51
0.0
  0
ARC
  5
1392
100
AcDbEntity
  8
VHH-025
100
AcDbCircle
 10
365.390408
 20
377.5
 30
0.0
 40
2.0
100
AcDbArc
 50
270.0
 51
0.0
  0
LINE
  5
1393
100
AcDbEntity
  8
VHH-025
100
AcDbLine
 10
357.890408
 20
388.980252
 30
0.0
 11
356.890408
 21
388.980252
 31
0.0
  0
LINE
  5
1394
100
AcDbEntity
  8
VHH-025
100
AcDbLine
 10
347.890408
 20
388.980252
 30
0.0
 11
346.890408
 21
388.980252
 31
0.0
  0
ARC
  5
1395
100
AcDbEntity
  8
VHH-025
100
AcDbCircle
 10
340.390408
 20
387.327502
 30
0.0
 40
3.0
100
AcDbArc
 50
180.0
 51
270.0
  0
LINE
  5
1396
100
AcDbEntity
  8
VHH-025
100
AcDbLine
 10
337.390408
 20
387.327502
 30
0.0
 11
337.390408
 21
389.18618
 31
0.0
  0
LINE
  5
1397
100
AcDbEntity
  8
VHH-025
100
AcDbLine
 10
337.390408
 20
385.5
 30
0.0
 11
338.011282
 21
385.5
 31
0.0
  0
LINE
  5
1398
100
AcDbEntity
  8
VHH-025
100
AcDbLine
 10
337.390408
 20
385.5
 30
0.0
 11
337.390408
 21
387.327502
 31
0.0
  0
LINE
  5
1399
100
AcDbEntity
  8
VHH-025
100
AcDbLine
 10
337.390408
 20
385.5
 30
0.0
 11
337.390408
 21
384.803848
 31
0.0
  0
LINE
  5
139A
100
AcDbEntity
  8
VHH-025
100
AcDbLine
 10
337.390408
 20
384.303848
 30
0.0
 11
337.390408
 21
384.803848
 31
0.0
  0
LINE
  5
139B
100
AcDbEntity
  8
VHH-025
100
AcDbLine
 10
337.390408
 20
384.303848
 30
0.0
 11
337.390408
 21
383.964102
 31
0.0
  0
ARC
  5
139C
100
AcDbEntity
  8
VHH-025
100
AcDbCircle
 10
339.390408
 20
377.5
 30
0.0
 40
2.0
100
AcDbArc
 50
180.0
 51
270.0
  0
LINE
  5
139D
100
AcDbEntity
  8
VHH-025
100
AcDbLine
 10
337.390408
 20
381.464102
 30
0.0
 11
337.390408
 21
377.5
 31
0.0
  0
LINE
  5
139E
100
AcDbEntity
  8
VHH-025
100
AcDbLine
 10
337.390408
 20
383.964102
 30
0.0
 11
337.390408
 21
381.464102
 31
0.0
  0
LINE
  5
139F
100
AcDbEntity
  8
VHH-025
100
AcDbLine
 10
339.390408
 20
375.5
 30
0.0
 11
365.390408
 21
375.5
 31
0.0
  0
LINE
  5
13A0
100
AcDbEntity
  8
VHH-025
100
AcDbLine
 10
340.390408
 20
384.327502
 30
0.0
 11
364.390408
 21
384.327502
 31
0.0
  0
LINE
  5
13A1
100
AcDbEntity
  8
VHH-025
100
AcDbLine
 10
367.390408
 20
389.18618
 30
0.0
 11
367.390408
 21
387.327502
 31
0.0
  0
LINE
  5
13A2
100
AcDbEntity
  8
VHH-025
100
AcDbLine
 10
366.769534
 20
385.5
 30
0.0
 11
367.390408
 21
385.5
 31
0.0
  0
LINE
  5
13A3
100
AcDbEntity
  8
VHH-025
100
AcDbLine
 10
367.390408
 20
383.964102
 30
0.0
 11
367.390408
 21
384.303848
 31
0.0
  0
LINE
  5
13A4
100
AcDbEntity
  8
VHH-025
100
AcDbLine
 10
367.390408
 20
384.803848
 30
0.0
 11
367.390408
 21
384.303848
 31
0.0
  0
LINE
  5
13A5
100
AcDbEntity
  8
VHH-025
100
AcDbLine
 10
367.390408
 20
384.803848
 30
0.0
 11
367.390408
 21
385.5
 31
0.0
  0
LINE
  5
13A6
100
AcDbEntity
  8
VHH-025
100
AcDbLine
 10
367.390408
 20
387.327502
 30
0.0
 11
367.390408
 21
385.5
 31
0.0
  0
LINE
  5
13A7
100
AcDbEntity
  8
VHH-025
100
AcDbLine
 10
367.390408
 20
377.5
 30
0.0
 11
367.390408
 21
381.464102
 31
0.0
  0
LINE
  5
13A8
100
AcDbEntity
  8
VHH-025
100
AcDbLine
 10
367.390408
 20
381.464102
 30
0.0
 11
367.390408
 21
383.964102
 31
0.0
  0
LINE
  5
13A9
100
AcDbEntity
  8
VHH-025
100
AcDbLine
 10
337.390408
 20
389.18618
 30
0.0
 11
337.390408
 21
444.720812
 31
0.0
  0
LINE
  5
13AA
100
AcDbEntity
  8
VHH-025
100
AcDbLine
 10
367.390408
 20
444.720812
 30
0.0
 11
367.390408
 21
389.18618
 31
0.0
  0
LINE
  5
13AB
100
AcDbEntity
  8
VHH-025
100
AcDbLine
 10
357.890408
 20
388.980252
 30
0.0
 11
357.890408
 21
406.988038
 31
0.0
  0
LINE
  5
13AC
100
AcDbEntity
  8
VHH-025
100
AcDbLine
 10
346.890408
 20
406.988038
 30
0.0
 11
346.890408
 21
388.980252
 31
0.0
  0
LINE
  5
13AD
100
AcDbEntity
  8
VHH-025
100
AcDbLine
 10
347.890408
 20
388.980252
 30
0.0
 11
347.890408
 21
404.488868
 31
0.0
  0
LINE
  5
13AE
100
AcDbEntity
  8
VHH-025
100
AcDbLine
 10
356.890408
 20
404.488868
 30
0.0
 11
356.890408
 21
388.980252
 31
0.0
  0
SPLINE
  5
13AF
100
AcDbEntity
  8
VHH-025
100
AcDbSpline
210
0.0
220
0.0
230
1.0
 70
     8
 71
     3
 72
    13
 73
     9
 74
     0
 42
0.0000001
 43
0.0000001
 40
0.0
 40
0.0
 40
0.0
 40
0.0
 40
3.284478271109694
 40
5.848013776661736
 40
8.811210366641999
 40
13.3105910935066
 40
22.19952180646416
 40
29.34158687019376
 40
29.34158687019376
 40
29.34158687019376
 40
29.34158687019376
 10
312.3928251465131
 20
543.2177674662398
 30
0.0
 10
312.5410033773287
 20
542.1136587897735
 30
0.0
 10
312.8048347269932
 20
540.1477932190682
 30
0.0
 10
314.6029740807125
 20
537.7197369067362
 30
0.0
 10
317.4674753514791
 20
535.7983223500514
 30
0.0
 10
323.0748985027921
 20
535.6006041290065
 30
0.0
 10
329.8505313317855
 20
535.5432052889036
 30
0.0
 10
335.1772883028051
 20
535.5123556094185
 30
0.0
 10
337.5552717070768
 20
535.500482310761
 30
0.0
  0
LINE
  5
13B0
100
AcDbEntity
  8
VHH-025
100
AcDbLine
 10
241.195655
 20
522.0
 30
0.0
 11
332.682537
 21
522.0
 31
0.0
  0
LINE
  5
13B1
100
AcDbEntity
  8
VHH-025
100
AcDbLine
 10
241.221809
 20
523.0
 30
0.0
 11
336.879127
 21
523.0
 31
0.0
  0
SPLINE
  5
13B2
100
AcDbEntity
  8
VHH-025
100
AcDbSpline
210
0.0
220
0.0
230
-1.0
 70
     8
 71
     3
 72
    13
 73
     9
 74
     7
 42
0.0000001
 43
0.0000001
 44
0.0000000001
 40
0.0
 40
0.0
 40
0.0
 40
0.0
 40
5.157331242126769
 40
11.03348381863751
 40
14.61916662718399
 40
16.78242660352368
 40
17.8917438422128
 40
18.52503597702071
 40
18.52503597702071
 40
18.52503597702071
 40
18.52503597702071
 10
226.9346359143864
 20
523.0000001114849
 30
0.0
 10
226.8456201336907
 20
524.7169780778865
 30
0.0
 10
226.6551816821352
 20
528.3902439046975
 30
0.0
 10
226.5263977525985
 20
533.2602549082191
 30
0.0
 10
226.5052749652685
 20
537.1399900125468
 30
0.0
 10
226.7507902485807
 20
539.416761627001
 30
0.0
 10
227.028887219191
 20
540.693236466302
 30
0.0
 10
227.2327041108595
 20
541.2376587941422
 30
0.0
 10
227.3067744311493
 20
541.4355105809391
 30
0.0
 11
226.9346359143864
 21
523.0000001114849
 31
0.0
 11
226.687960632139
 21
528.1514287333475
 31
0.0
 11
226.5317373253919
 21
534.0255042674944
 31
0.0
 11
226.5868148954896
 21
537.6107640439649
 31
0.0
 11
226.839142638938
 21
539.7592575708622
 31
0.0
 11
227.0950952917328
 21
540.8386430328637
 31
0.0
 11
227.3067744311493
 21
541.4355105809391
 31
0.0
  0
SPLINE
  5
13B3
100
AcDbEntity
  8
VHH-025
100
AcDbSpline
210
0.0
220
0.0
230
1.0
 70
     8
 71
     3
 72
    17
 73
    13
 74
    11
 42
0.0000001
 43
0.0000001
 44
0.0000000001
 40
0.0
 40
0.0
 40
0.0
 40
0.0
 40
0.5545798661037315
 40
1.653562178450281
 40
2.750923934510204
 40
3.848571212511028
 40
4.674193321130027
 40
5.488636099266271
 40
8.524172564826855
 40
12.84394436806068
 40
16.51294489443541
 40
20.18194542081104
 40
20.18194542081104
 40
20.18194542081104
 40
20.18194542081104
 10
227.5790734631045
 20
541.8853574984495
 30
0.0
 10
227.6069832685396
 20
541.7026698175614
 30
0.0
 10
227.6902004956624
 20
541.1579593835025
 30
0.0
 10
227.9245318290723
 20
540.2646237353082
 30
0.0
 10
228.4558669288663
 20
539.29104811889
 30
0.0
 10
229.1248804193538
 20
538.5299702545466
 30
0.0
 10
229.8423856226937
 20
537.9564970038739
 30
0.0
 10
230.7156114130572
 20
536.6443091403933
 30
0.0
 10
231.5300657738491
 20
534.0215989233558
 30
0.0
 10
232.5824187668985
 20
530.4990277768239
 30
0.0
 10
233.012170970305
 20
526.6252619162188
 30
0.0
 10
233.3814126717224
 20
524.208420738892
 30
0.0
 10
233.566033522431
 20
523.0000001502284
 30
0.0
 11
227.5790734631045
 21
541.8853574984495
 31
0.0
 11
227.6692861542969
 21
541.3381642069744
 31
0.0
 11
227.9665288620681
 21
540.2801429900192
 31
0.0
 11
228.4888345576991
 21
539.3150525362407
 31
0.0
 11
229.2105631693821
 21
538.4880474830634
 31
0.0
 11
229.8140107359003
 21
537.9245735256318
 31
0.0
 11
230.2857934576331
 21
537.2606924351248
 31
0.0
 11
231.3967343353542
 21
534.4357513738004
 31
0.0
 11
232.5076752130753
 21
530.2612767004766
 31
0.0
 11
233.0368543677532
 21
526.630638425353
 31
0.0
 11
233.566033522431
 21
523.0000001502284
 31
0.0
  0
SPLINE
  5
13B4
100
AcDbEntity
  8
VHH-025
100
AcDbSpline
210
0.0
220
0.0
230
1.0
 70
     8
 71
     3
 72
    12
 73
     8
 74
     6
 42
0.0000001
 43
0.0000001
 44
0.0000000001
 40
0.0
 40
0.0
 40
0.0
 40
0.0
 40
0.280006437082199
 40
0.4549869708025066
 40
0.6605144582107635
 40
0.8644346373821104
 40
1.061580118983834
 40
1.061580118983834
 40
1.061580118983834
 40
1.061580118983834
 10
232.8486761164213
 20
521.9999999999999
 30
0.0
 10
232.9423922139965
 20
522.0006450227599
 30
0.0
 10
233.0946730108077
 20
522.0016931306346
 30
0.0
 10
233.3109889883735
 20
521.9673691095022
 30
0.0
 10
233.5017957041632
 20
521.8877935067771
 30
0.0
 10
233.5884812464055
 20
521.6878236503903
 30
0.0
 10
233.588384291185
 20
521.5542346132033
 30
0.0
 10
233.588336632446
 20
521.4885683703687
 30
0.0
 11
232.8486761164213
 21
521.9999999999999
 31
0.0
 11
233.1285843128735
 21
521.9925833723063
 31
0.0
 11
233.3009035641061
 21
521.9621816809776
 31
0.0
 11
233.4833811568987
 21
521.8676117269279
 31
0.0
 11
233.5746075347833
 21
521.6852352277528
 31
0.0
 11
233.588336632446
 21
521.4885683703687
 31
0.0
  0
SPLINE
  5
13B5
100
AcDbEntity
  8
VHH-025
100
AcDbSpline
210
0.0
220
0.0
230
1.0
 70
     8
 71
     3
 72
    17
 73
    13
 74
    11
 42
0.0000001
 43
0.0000001
 44
0.0000000001
 40
0.0
 40
0.0
 40
0.0
 40
0.0
 40
3.506197438003689
 40
7.012394876007379
 40
10.46871649040251
 40
12.72673424276973
 40
14.19768025676247
 40
14.7442154355653
 40
16.1367507362761
 40
17.24703645469927
 40
18.36080100071135
 40
19.47142540553352
 40
19.47142540553352
 40
19.47142540553352
 40
19.47142540553352
 10
233.588336632446
 20
521.4885683703687
 30
0.0
 10
233.4554003821029
 20
520.3282953011312
 30
0.0
 10
233.1895278814166
 20
518.0077491626561
 30
0.0
 10
233.0344590209816
 20
514.5015033944238
 30
0.0
 10
232.0518857901884
 20
511.5599829006959
 30
0.0
 10
231.4868641693839
 20
509.2512031281687
 30
0.0
 10
231.1664726480879
 20
507.8311775579578
 30
0.0
 10
230.4954459874113
 20
506.900054346087
 30
0.0
 10
229.6756215939577
 20
506.2717188546659
 30
0.0
 10
229.0571730281198
 20
505.2176678954957
 30
0.0
 10
228.6706774898842
 20
504.1642018239223
 30
0.0
 10
228.623482475622
 20
503.4204914228296
 30
0.0
 10
228.5999182807872
 20
503.0491611654733
 30
0.0
 11
233.588336632446
 21
521.4885683703687
 31
0.0
 11
233.2300280647841
 21
518.0007272838793
 31
0.0
 11
232.8717194971222
 21
514.5128861973899
 31
0.0
 11
231.9825745947864
 21
511.1728891248185
 31
0.0
 11
231.4300301253297
 21
508.9835196312706
 31
0.0
 11
230.9665262757607
 21
507.5875087582772
 31
0.0
 11
230.6508208036321
 21
507.1413801260005
 31
0.0
 11
229.6755498959782
 21
506.1473976209181
 31
0.0
 11
229.0883092299327
 21
505.2051223019816
 31
0.0
 11
228.7231163491024
 21
504.1529314334866
 31
0.0
 11
228.5999182807872
 21
503.0491611654733
 31
0.0
  0
SPLINE
  5
13B6
100
AcDbEntity
  8
VHH-025
100
AcDbSpline
210
0.0
220
0.0
230
-1.0
 70
     8
 71
     3
 72
    13
 73
     9
 74
     7
 42
0.0000001
 43
0.0000001
 44
0.0000000001
 40
0.0
 40
0.0
 40
0.0
 40
0.0
 40
4.583810445734231
 40
8.698219770199523
 40
10.96932457602888
 40
14.6869705347378
 40
16.50338991512481
 40
17.39425123552253
 40
17.39425123552253
 40
17.39425123552253
 40
17.39425123552253
 10
226.9644498556563
 20
521.5009829301298
 30
0.0
 10
226.9701274871965
 20
519.9730920281563
 30
0.0
 10
226.9809013373579
 20
517.0737725629237
 30
0.0
 10
227.0453836076039
 20
513.4172104798525
 30
0.0
 10
227.1908292674474
 20
510.0531749913645
 30
0.0
 10
227.3183602778973
 20
507.4517484158803
 30
0.0
 10
227.6837612797442
 20
505.334286259115
 30
0.0
 10
227.9463429553238
 20
504.4704923239788
 30
0.0
 10
228.0327484241588
 20
504.1862511644331
 30
0.0
 11
226.9644498556563
 21
521.5009829301298
 31
0.0
 11
226.9926905741495
 21
516.9172594803304
 31
0.0
 11
227.0788000695111
 21
512.8037513371445
 31
0.0
 11
227.1716784321152
 21
510.5345464876827
 31
0.0
 11
227.4506532095792
 21
506.8273825382675
 31
0.0
 11
227.7852926841851
 21
505.0420546167133
 31
0.0
 11
228.0327484241588
 21
504.1862511644331
 31
0.0
  0
LWPOLYLINE
  5
13B7
100
AcDbEntity
  8
VHH-025
100
AcDbPolyline
 90
        6
 70
     0
 43
0.0
 10
298.362992
 20
501.014203
 10
298.175013
 20
502.077695
 10
297.851322
 20
504.277746
 10
297.613184
 20
506.385155
 10
297.465871
 20
508.396084
 10
297.428804
 20
509.339293
  0
LWPOLYLINE
  5
13B8
100
AcDbEntity
  8
VHH-025
100
AcDbPolyline
 90
        6
 70
     0
 43
0.0
 10
273.403998
 20
509.322402
 10
273.320642
 20
509.70028
 10
273.100065
 20
510.01822
 10
272.775297
 20
510.228614
 10
272.405797
 20
510.299999
 10
272.404249
 20
510.3
  0
SPLINE
  5
13B9
100
AcDbEntity
  8
VHH-025
100
AcDbSpline
210
0.0
220
0.0
230
1.0
 70
     8
 71
     3
 72
    12
 73
     8
 74
     6
 42
0.0000001
 43
0.0000001
 44
0.0000000001
 40
0.0
 40
0.0
 40
0.0
 40
0.0
 40
0.4301022247154494
 40
0.8434719887057218
 40
1.254524939527669
 40
1.659116521512076
 40
1.86336149188947
 40
1.86336149188947
 40
1.86336149188947
 40
1.86336149188947
 10
286.6437793800159
 20
556.9033544413378
 30
0.0
 10
286.7863012487541
 20
556.9217674132375
 30
0.0
 10
287.0658003937263
 20
556.9578770288914
 30
0.0
 10
287.4582455591458
 20
557.1250705673635
 30
0.0
 10
287.7541428075236
 20
557.4260807858602
 30
0.0
 10
287.8782828803243
 20
557.7503294104999
 30
0.0
 10
287.9133164700648
 20
557.9501079148758
 30
0.0
 10
287.9250691062543
 20
558.0171271412182
 30
0.0
 11
286.6437793800159
 21
556.9033544413378
 31
0.0
 11
287.0672780327577
 21
556.9784331655618
 31
0.0
 11
287.4440339343946
 21
557.1485200620681
 31
0.0
 11
287.7310386213575
 21
557.4427866725436
 31
0.0
 11
287.8854139259538
 21
557.8167687757832
 31
0.0
 11
287.9250691062543
 21
558.0171271412182
 31
0.0
  0
SPLINE
  5
13BA
100
AcDbEntity
  8
VHH-025
100
AcDbSpline
210
0.0
220
0.0
230
-1.0
 70
     8
 71
     3
 72
    14
 73
    10
 74
     8
 42
0.0000001
 43
0.0000001
 44
0.0000000001
 40
0.0
 40
0.0
 40
0.0
 40
0.0
 40
0.246163639849165
 40
0.447354371503121
 40
0.8348519280353755
 40
1.027990166881475
 40
1.250840234266576
 40
1.448371555080847
 40
1.702783789879786
 40
1.702783789879786
 40
1.702783789879786
 40
1.702783789879786
 10
273.9643914785274
 20
557.4545248284594
 30
0.0
 10
273.9642153725282
 20
557.3722304303871
 30
0.0
 10
273.9638953342453
 20
557.2226764233437
 30
0.0
 10
274.0252891820816
 20
556.9491511673838
 30
0.0
 10
274.1285194460494
 20
556.710398162015
 30
0.0
 10
274.26327166679
 20
556.4727114014274
 30
0.0
 10
274.442965731241
 20
556.363987389517
 30
0.0
 10
274.6487415327972
 20
556.2698163598681
 30
0.0
 10
274.8007008592856
 20
556.2596876389545
 30
0.0
 10
274.88624320494
 20
556.2539858859564
 30
0.0
 11
273.9643914785274
 21
557.4545248284594
 31
0.0
 11
273.9739212624353
 21
557.2085457220246
 31
0.0
 11
274.0156107585535
 21
557.0117216980415
 31
0.0
 11
274.1634070783648
 21
556.6535170021361
 31
0.0
 11
274.2695139020588
 21
556.4921363302137
 31
0.0
 11
274.451805572814
 21
556.3639493601003
 31
0.0
 11
274.6340972435682
 21
556.2878680254889
 31
0.0
 11
274.88624320494
 21
556.2539858859564
 31
0.0
  0
SPLINE
  5
13BB
100
AcDbEntity
  8
VHH-025
100
AcDbSpline
210
0.0
220
0.0
230
1.0
 70
     8
 71
     3
 72
    20
 73
    16
 74
     0
 42
0.0000001
 43
0.0000001
 40
0.0
 40
0.0
 40
0.0
 40
0.0
 40
0.3918367249981683
 40
0.3918367249981683
 40
0.6525501684806338
 40
0.6525501684806338
 40
1.182440120300543
 40
1.182440120300543
 40
1.712330072120452
 40
1.712330072120452
 40
2.006270928035041
 40
2.006270928035041
 40
2.315289501487082
 40
2.315289501487082
 40
2.616402084268149
 40
2.616402084268149
 40
2.616402084268149
 40
2.616402084268149
 10
296.4969912262013
 20
553.4448793183237
 30
0.0
 10
296.6275885842414
 20
553.4652047948712
 30
0.0
 10
296.7397706229149
 20
553.4834693973916
 30
0.0
 10
296.8893840871805
 20
553.5193358176966
 30
0.0
 10
296.9390903327503
 20
553.5348291204518
 30
0.0
 10
297.0619067896577
 20
553.5841206296573
 30
0.0
 10
297.1465105908664
 20
553.636629924471
 30
0.0
 10
297.307251297424
 20
553.7782206218089
 30
0.0
 10
297.3805387383317
 20
553.8656042831989
 30
0.0
 10
297.4649620330892
 20
554.0052175410237
 30
0.0
 10
297.489624224213
 20
554.0559666098342
 30
0.0
 10
297.5281162315277
 20
554.1581088020202
 30
0.0
 10
297.5408274490046
 20
554.2062883098096
 30
0.0
 10
297.5652881285041
 20
554.346261622084
 30
0.0
 10
297.5751120070808
 20
554.431751326887
 30
0.0
 10
297.5860599025627
 20
554.5320804753
 30
0.0
  0
SPLINE
  5
13BC
100
AcDbEntity
  8
VHH-025
100
AcDbSpline
210
0.0
220
0.0
230
1.0
 70
     8
 71
     3
 72
    11
 73
     7
 74
     5
 42
0.0000001
 43
0.0000001
 44
0.0000000001
 40
0.0
 40
0.0
 40
0.0
 40
0.0
 40
0.6629926957091156
 40
1.324539577354454
 40
2.135160944774634
 40
2.616402084268062
 40
2.616402084268062
 40
2.616402084268062
 40
2.616402084268062
 10
296.6046395578823
 20
552.7532061030797
 30
0.0
 10
296.8256119398348
 20
552.7875970665295
 30
0.0
 10
297.2670748206368
 20
552.8563039957122
 30
0.0
 10
297.8653569450718
 20
553.282164396186
 30
0.0
 10
298.2174624967098
 20
553.8653584337155
 30
0.0
 10
298.2644322233578
 20
554.2958003102686
 30
0.0
 10
298.2819292593449
 20
554.456147358077
 30
0.0
 11
296.6046395578823
 21
552.7532061030797
 31
0.0
 11
297.2499381355437
 21
552.9053542553255
 31
0.0
 11
297.7938717049728
 21
553.2818918346756
 31
0.0
 11
298.2036422429273
 21
553.9813166752001
 31
0.0
 11
298.2819292593449
 21
554.456147358077
 31
0.0
  0
SPLINE
  5
13BD
100
AcDbEntity
  8
VHH-025
100
AcDbSpline
210
0.0
220
0.0
230
1.0
 70
     8
 71
     3
 72
    12
 73
     8
 74
     6
 42
0.0000001
 43
0.0000001
 44
0.0000000001
 40
0.0
 40
0.0
 40
0.0
 40
0.0
 40
0.6333227639757436
 40
1.258591262609224
 40
1.575282577616606
 40
2.212493335718814
 40
2.538190609335094
 40
2.538190609335094
 40
2.538190609335094
 40
2.538190609335094
 10
272.6364261643075
 20
553.1419913231111
 30
0.0
 10
272.6622741707158
 20
552.9295174019103
 30
0.0
 10
272.7136414622011
 20
552.5072716909286
 30
0.0
 10
273.0432731924189
 20
552.0669763418811
 30
0.0
 10
273.4666329955738
 20
551.7539308137647
 30
0.0
 10
273.884520382386
 20
551.6053710274954
 30
0.0
 10
274.2060826978903
 20
551.6065737614109
 30
0.0
 10
274.3148490244839
 20
551.6069805782035
 30
0.0
 11
272.6364261643075
 21
553.1419913231111
 31
0.0
 11
272.7676496823996
 21
552.5224123437474
 31
0.0
 11
273.1322642576651
 21
552.014458697351
 31
0.0
 11
273.3868542514328
 21
551.8261044458077
 31
0.0
 11
273.9893622251911
 21
551.6186877352975
 31
0.0
 11
274.3148490244839
 21
551.6069805782035
 31
0.0
  0
ELLIPSE
  5
13BE
100
AcDbEntity
  8
VHH-025
100
AcDbEllipse
 10
280.878281
 20
563.452897
 30
0.0
 11
-0.5847090253523675
 21
-3.845560362166452
 31
0.0
210
0.0
220
0.0
230
1.0
 40
0.934504
 41
0.0
 42
6.283185307179586
  0
LWPOLYLINE
  5
13BF
100
AcDbEntity
  8
VHH-025
100
AcDbPolyline
 90
        4
 70
     1
 43
0.0
 10
294.11203
 20
566.035148
 10
294.862308
 20
566.035148
 10
294.862308
 20
561.770476
 10
294.11203
 20
561.770476
  0
SPLINE
  5
13C0
100
AcDbEntity
  8
VHH-025
100
AcDbSpline
210
0.0
220
0.0
230
-1.0
 70
     8
 71
     3
 72
    17
 73
    13
 74
    11
 42
0.0000001
 43
0.0000001
 44
0.0000000001
 40
0.0
 40
0.0
 40
0.0
 40
0.0
 40
0.5545798661037315
 40
1.653562178450281
 40
2.750923934510204
 40
3.848571212511028
 40
4.674193321130027
 40
5.488636099266271
 40
8.524172564826855
 40
12.84394436806068
 40
16.51294489443541
 40
20.18194542081104
 40
20.18194542081104
 40
20.18194542081104
 40
20.18194542081104
 10
247.2087686755694
 20
541.8853574984495
 30
0.0
 10
247.1808588701343
 20
541.7026698175614
 30
0.0
 10
247.0976416430115
 20
541.1579593835025
 30
0.0
 10
246.8633103096017
 20
540.2646237353082
 30
0.0
 10
246.3319752098077
 20
539.29104811889
 30
0.0
 10
245.66296171932
 20
538.5299702545466
 30
0.0
 10
244.9454565159803
 20
537.9564970038739
 30
0.0
 10
244.0722307256166
 20
536.6443091403933
 30
0.0
 10
243.257776364825
 20
534.0215989233558
 30
0.0
 10
242.2054233717754
 20
530.4990277768239
 30
0.0
 10
241.7756711683689
 20
526.6252619162188
 30
0.0
 10
241.4064294669516
 20
524.208420738892
 30
0.0
 10
241.2218086162429
 20
523.0000001502284
 30
0.0
 11
247.2087686755694
 21
541.8853574984495
 31
0.0
 11
247.118555984377
 21
541.3381642069744
 31
0.0
 11
246.8213132766059
 21
540.2801429900192
 31
0.0
 11
246.2990075809748
 21
539.3150525362407
 31
0.0
 11
245.5772789692919
 21
538.4880474830634
 31
0.0
 11
244.9738314027736
 21
537.9245735256318
 31
0.0
 11
244.5020486810408
 21
537.2606924351248
 31
0.0
 11
243.3911078033197
 21
534.4357513738004
 31
0.0
 11
242.2801669255986
 21
530.2612767004766
 31
0.0
 11
241.7509877709207
 21
526.630638425353
 31
0.0
 11
241.2218086162429
 21
523.0000001502284
 31
0.0
  0
SPLINE
  5
13C1
100
AcDbEntity
  8
VHH-025
100
AcDbSpline
210
0.0
220
0.0
230
1.0
 70
     8
 71
     3
 72
    13
 73
     9
 74
     7
 42
0.0000001
 43
0.0000001
 44
0.0000000001
 40
0.0
 40
0.0
 40
0.0
 40
0.0
 40
5.157331242127678
 40
11.03348381863841
 40
14.6191666271849
 40
16.78242660352459
 40
17.89174384221371
 40
18.52503597702162
 40
18.52503597702162
 40
18.52503597702162
 40
18.52503597702162
 10
247.8532062242875
 20
523.000000111484
 30
0.0
 10
247.9422220049832
 20
524.7169780778859
 30
0.0
 10
248.1326604565386
 20
528.3902439046971
 30
0.0
 10
248.2614443860754
 20
533.2602549082191
 30
0.0
 10
248.2825671734055
 20
537.139990012547
 30
0.0
 10
248.0370518900932
 20
539.4167616270008
 30
0.0
 10
247.758954919483
 20
540.693236466302
 30
0.0
 10
247.5551380278144
 20
541.2376587941423
 30
0.0
 10
247.4810677075247
 20
541.4355105809391
 30
0.0
 11
247.8532062242875
 21
523.000000111484
 31
0.0
 11
248.0998815065349
 21
528.1514287333475
 31
0.0
 11
248.256104813282
 21
534.0255042674944
 31
0.0
 11
248.2010272431844
 21
537.6107640439649
 31
0.0
 11
247.948699499736
 21
539.7592575708622
 31
0.0
 11
247.6927468469412
 21
540.8386430328637
 31
0.0
 11
247.4810677075247
 21
541.4355105809391
 31
0.0
  0
SPLINE
  5
13C2
100
AcDbEntity
  8
VHH-025
100
AcDbSpline
210
0.0
220
0.0
230
1.0
 70
     8
 71
     3
 72
    12
 73
     8
 74
     6
 42
0.0000001
 43
0.0000001
 44
0.0000000001
 40
0.0
 40
0.0
 40
0.0
 40
0.0
 40
0.5662025144866722
 40
1.132136061660013
 40
1.697787119143206
 40
2.263116602110341
 40
2.828292171028613
 40
2.828292171028613
 40
2.828292171028613
 40
2.828292171028613
 10
248.2392952419404
 20
513.4078597155212
 30
0.0
 10
248.2778294782146
 20
513.2209906306527
 30
0.0
 10
248.3548796455635
 20
512.8473412307013
 30
0.0
 10
248.6937881745839
 20
512.3795073738381
 30
0.0
 10
249.1090164371855
 20
511.9881665273053
 30
0.0
 10
249.6414668839646
 20
511.7617161549871
 30
0.0
 10
250.0170305558902
 20
511.7205702874982
 30
0.0
 10
250.204786826056
 20
511.7000001546821
 30
0.0
 11
248.2392952419404
 21
513.4078597155212
 31
0.0
 11
248.3921517311464
 21
512.8626806796819
 31
0.0
 11
248.7066034106474
 21
512.392148086682
 31
0.0
 11
249.1286778301464
 21
512.0155656876822
 31
0.0
 11
249.6466866356468
 21
511.7891494741816
 31
0.0
 11
250.204786826056
 21
511.7000001546821
 31
0.0
  0
SPLINE
  5
13C3
100
AcDbEntity
  8
VHH-025
100
AcDbSpline
210
0.0
220
0.0
230
1.0
 70
     8
 71
     3
 72
    11
 73
     7
 74
     5
 42
0.0000001
 43
0.0000001
 44
0.0000000001
 40
0.0
 40
0.0
 40
0.0
 40
0.0
 40
0.6501585836434782
 40
1.328696847748736
 40
2.007498148688289
 40
2.665365116565222
 40
2.665365116565222
 40
2.665365116565222
 40
2.665365116565222
 10
242.2737548801469
 20
513.2798863506823
 30
0.0
 10
242.3122442430828
 20
513.0617176408109
 30
0.0
 10
242.3909030449372
 20
512.6158570702111
 30
0.0
 10
242.8813073612945
 20
512.1199186768718
 30
0.0
 10
243.4690510430848
 20
511.7706116462878
 30
0.0
 10
243.9174012086783
 20
511.7232902761227
 30
0.0
 10
244.1380653561464
 20
511.7000001546821
 30
0.0
 11
242.2737548801469
 21
513.2798863506823
 31
0.0
 11
242.4481055835904
 21
512.6535413849532
 31
0.0
 11
242.8973104925871
 21
512.1449854631627
 31
0.0
 11
243.4902446344849
 21
511.814530761987
 31
0.0
 11
244.1380653561464
 21
511.7000001546821
 31
0.0
  0
LINE
  5
13C4
100
AcDbEntity
  8
VHH-025
100
AcDbLine
 10
274.171454
 20
556.638215
 30
0.0
 11
275.883969
 21
553.417621
 31
0.0
  0
LINE
  5
13C5
100
AcDbEntity
  8
VHH-025
100
AcDbLine
 10
289.12868
 20
554.133586
 30
0.0
 11
275.001299
 21
553.369907
 31
0.0
  0
LINE
  5
13C6
100
AcDbEntity
  8
VHH-025
100
AcDbLine
 10
244.138065
 20
511.7
 30
0.0
 11
310.358678
 21
511.7
 31
0.0
  0
LINE
  5
13C7
100
AcDbEntity
  8
VHH-025
100
AcDbLine
 10
252.873114
 20
513.577798
 30
0.0
 11
313.211715
 21
513.577809
 31
0.0
  0
LINE
  5
13C8
100
AcDbEntity
  8
VHH-025
100
AcDbLine
 10
296.60464
 20
552.753206
 30
0.0
 11
274.314849
 21
551.606981
 31
0.0
  0
LINE
  5
13C9
100
AcDbEntity
  8
VHH-025
100
AcDbLine
 10
280.291227
 20
511.7
 30
0.0
 11
283.263192
 21
511.7
 31
0.0
  0
LINE
  5
13CA
100
AcDbEntity
  8
VHH-025
100
AcDbLine
 10
265.257284
 20
510.3
 30
0.0
 11
308.416245
 21
510.3
 31
0.0
  0
LINE
  5
13CB
100
AcDbEntity
  8
VHH-025
100
AcDbLine
 10
265.257284
 20
510.9
 30
0.0
 11
309.231124
 21
510.9
 31
0.0
  0
ARC
  5
13CC
100
AcDbEntity
  8
VHH-025
100
AcDbCircle
 10
257.092825
 20
510.7
 30
0.0
 40
1.6
100
AcDbArc
 50
141.317813
 51
270.0
  0
LINE
  5
13CD
100
AcDbEntity
  8
VHH-025
100
AcDbLine
 10
243.336878
 20
523.0
 30
0.0
 11
243.196104
 21
522.0
 31
0.0
  0
LINE
  5
13CE
100
AcDbEntity
  8
VHH-025
100
AcDbLine
 10
247.826926
 20
522.0
 30
0.0
 11
248.239295
 21
513.40786
 31
0.0
  0
LINE
  5
13CF
100
AcDbEntity
  8
VHH-025
100
AcDbLine
 10
241.195655
 20
522.0
 30
0.0
 11
242.273755
 21
513.279886
 31
0.0
  0
LINE
  5
13D0
100
AcDbEntity
  8
VHH-025
100
AcDbLine
 10
265.257284
 20
510.3
 30
0.0
 11
265.257284
 21
510.9
 31
0.0
  0
LINE
  5
13D1
100
AcDbEntity
  8
VHH-025
100
AcDbLine
 10
270.492825
 20
509.7
 30
0.0
 11
270.492825
 21
508.7
 31
0.0
  0
LINE
  5
13D2
100
AcDbEntity
  8
VHH-025
100
AcDbLine
 10
270.492825
 20
508.7
 30
0.0
 11
270.492825
 21
508.1
 31
0.0
  0
LINE
  5
13D3
100
AcDbEntity
  8
VHH-025
100
AcDbLine
 10
261.741353
 20
508.7
 30
0.0
 11
260.741353
 21
509.7
 31
0.0
  0
LINE
  5
13D4
100
AcDbEntity
  8
VHH-025
100
AcDbLine
 10
260.492825
 20
509.1
 30
0.0
 11
257.092825
 21
509.1
 31
0.0
  0
LINE
  5
13D5
100
AcDbEntity
  8
VHH-025
100
AcDbLine
 10
261.492825
 20
508.1
 30
0.0
 11
260.492825
 21
509.1
 31
0.0
  0
LINE
  5
13D6
100
AcDbEntity
  8
VHH-025
100
AcDbLine
 10
257.092825
 20
509.7
 30
0.0
 11
260.741353
 21
509.7
 31
0.0
  0
ARC
  5
13D7
100
AcDbEntity
  8
VHH-025
100
AcDbCircle
 10
257.092825
 20
510.7
 30
0.0
 40
1.0
100
AcDbArc
 50
90.0
 51
270.0
  0
LINE
  5
13D8
100
AcDbEntity
  8
VHH-025
100
AcDbLine
 10
270.492825
 20
508.1
 30
0.0
 11
261.492825
 21
508.1
 31
0.0
  0
LINE
  5
13D9
100
AcDbEntity
  8
VHH-025
100
AcDbLine
 10
270.492825
 20
508.7
 30
0.0
 11
261.741353
 21
508.7
 31
0.0
  0
LINE
  5
13DA
100
AcDbEntity
  8
VHH-025
100
AcDbLine
 10
260.741353
 20
509.7
 30
0.0
 11
270.492825
 21
509.7
 31
0.0
  0
LINE
  5
13DB
100
AcDbEntity
  8
VHH-025
100
AcDbLine
 10
256.707274
 20
511.7
 30
0.0
 11
280.291227
 21
511.7
 31
0.0
  0
LINE
  5
13DC
100
AcDbEntity
  8
VHH-025
100
AcDbLine
 10
231.448772
 20
523.0
 30
0.0
 11
231.589547
 21
522.0
 31
0.0
  0
LINE
  5
13DD
100
AcDbEntity
  8
VHH-025
100
AcDbLine
 10
292.197705
 20
511.7
 30
0.0
 11
304.153229
 21
511.7
 31
0.0
  0
LINE
  5
13DE
100
AcDbEntity
  8
VHH-025
100
AcDbLine
 10
296.56869
 20
553.452282
 30
0.0
 11
291.663729
 21
553.200051
 31
0.0
  0
LINE
  5
13DF
100
AcDbEntity
  8
VHH-025
100
AcDbLine
 10
283.263192
 20
511.7
 30
0.0
 11
286.238297
 21
511.7
 31
0.0
  0
LINE
  5
13E0
100
AcDbEntity
  8
VHH-025
100
AcDbLine
 10
286.238297
 20
511.7
 30
0.0
 11
292.197705
 21
511.7
 31
0.0
  0
LINE
  5
13E1
100
AcDbEntity
  8
VHH-025
100
AcDbLine
 10
304.153229
 20
511.7
 30
0.0
 11
310.358678
 21
511.7
 31
0.0
  0
LINE
  5
13E2
100
AcDbEntity
  8
VHH-025
100
AcDbLine
 10
286.643779
 20
556.903354
 30
0.0
 11
274.886243
 21
556.253986
 31
0.0
  0
LINE
  5
13E3
100
AcDbEntity
  8
VHH-025
100
AcDbLine
 10
274.474312
 20
553.870754
 30
0.0
 11
274.481198
 21
556.055703
 31
0.0
  0
ARC
  5
13E4
100
AcDbEntity
  8
VHH-025
100
AcDbCircle
 10
289.101691
 20
554.632858
 30
0.0
 40
0.5
100
AcDbArc
 50
273.09421
 51
359.745727
  0
LINE
  5
13E5
100
AcDbEntity
  8
VHH-025
100
AcDbLine
 10
287.984906
 20
556.492136
 30
0.0
 11
289.215688
 21
554.13829
 31
0.0
  0
LWPOLYLINE
  5
13E6
100
AcDbEntity
  8
VHH-025
100
AcDbPolyline
 90
        6
 70
     0
 43
0.0
 10
283.786818
 20
466.831743
 10
279.160867
 20
479.715364
 10
276.839859
 20
487.98122
 10
275.061981
 20
495.830641
 10
273.894329
 20
503.024183
 10
273.403998
 20
509.322402
  0
LWPOLYLINE
  5
13E7
100
AcDbEntity
  8
VHH-025
100
AcDbPolyline
 90
       12
 70
     0
 43
0.0
 10
288.695721
 20
486.058056
 10
288.274293
 20
487.261493
 10
287.405455
 20
489.872399
 10
286.601446
 20
492.437856
 10
285.867591
 20
494.953445
 10
285.211383
 20
497.407726
 10
284.640698
 20
499.786155
 10
284.161911
 20
502.077675
 10
283.779785
 20
504.277734
 10
283.499004
 20
506.385149
 10
283.325513
 20
508.396083
 10
283.281895
 20
509.339362
  0
SPLINE
  5
13E8
100
AcDbEntity
  8
VHH-025
100
AcDbSpline
210
0.0
220
0.0
230
1.0
 70
     8
 71
     3
 72
    11
 73
     7
 74
     0
 42
0.0000001
 43
0.0000001
 40
3.395156984515788
 40
3.395156984515788
 40
3.395156984515788
 40
3.395156984515788
 40
3.94443464699676
 40
5.59179142545979
 40
7.104516291263504
 40
7.153099794636321
 40
7.153099794636321
 40
7.153099794636321
 40
7.153099794636321
 10
366.7143108293966
 20
550.5287257211875
 30
0.0
 10
366.8816545070512
 20
550.4390579578848
 30
0.0
 10
367.4861589837155
 20
549.9744277177206
 30
0.0
 10
367.7520230771506
 20
548.5934052727252
 30
0.0
 10
367.2990424581885
 20
547.5825080166596
 30
0.0
 10
366.906208782294
 20
547.201939051014
 30
0.0
 10
366.8938237650827
 20
547.1902086002155
 30
0.0
  0
ELLIPSE
  5
13E9
100
AcDbEntity
  8
VHH-025
100
AcDbEllipse
 10
837.390408
 20
523.960987
 30
0.0
 11
-500.0
 21
0.0
 31
0.0
210
0.0
220
0.0
230
1.0
 40
0.898794
 41
-0.1027966431212223
 42
-0.0000000000000001
  0
LWPOLYLINE
  5
13EA
100
AcDbEntity
  8
VHH-025
100
AcDbPolyline
 90
        4
 70
     0
 43
0.0
 10
339.986433
 20
525.528119
 10
339.516708
 20
526.166553
 10
339.241417
 20
527.908791
 10
339.235183
 20
530.282564
  0
LWPOLYLINE
  5
13EB
100
AcDbEntity
  8
VHH-025
100
AcDbPolyline
 90
        4
 70
     0
 43
0.0
 10
365.545634
 20
530.282564
 10
365.539399
 20
527.908791
 10
365.264108
 20
526.166553
 10
364.794384
 20
525.528119
  0
ELLIPSE
  5
13EC
100
AcDbEntity
  8
VHH-025
100
AcDbEllipse
 10
352.56786
 20
483.040367
 30
0.0
 11
-100.0
 21
0.0
 31
0.0
210
0.0
220
0.0
230
1.0
 40
0.898794
 41
-1.547509973665146
 42
-1.472143321850305
  0
ELLIPSE
  5
13ED
100
AcDbEntity
  8
VHH-025
100
AcDbEllipse
 10
343.014033
 20
569.799483
 30
0.0
 11
-3.0
 21
0.0
 31
0.0
210
0.0
220
0.0
230
1.0
 40
0.898794
 41
-1.472143321850305
 42
-0.102796643121216
  0
ELLIPSE
  5
13EE
100
AcDbEntity
  8
VHH-025
100
AcDbEllipse
 10
362.121687
 20
569.799483
 30
0.0
 11
-3.0
 21
0.0
 31
0.0
210
0.0
220
0.0
230
1.0
 40
0.898794
 41
-3.046007003412206
 42
-1.669449331739486
  0
ELLIPSE
  5
13EF
100
AcDbEntity
  8
VHH-025
100
AcDbEllipse
 10
352.56786
 20
483.040367
 30
0.0
 11
-100.0
 21
0.0
 31
0.0
210
0.0
220
0.0
230
1.0
 40
0.898794
 41
-1.669449331739488
 42
-1.594082679924646
  0
LWPOLYLINE
  5
13F0
100
AcDbEntity
  8
VHH-025
100
AcDbPolyline
 90
        8
 70
     0
 43
0.0
 10
354.896285
 20
572.895404
 10
353.540774
 20
572.91466
 10
352.965584
 20
572.917873
 10
352.563291
 20
572.918511
 10
352.159361
 20
572.917838
 10
351.576079
 20
572.914508
 10
350.89192
 20
572.906857
 10
350.239435
 20
572.895404
  0
ELLIPSE
  5
13F1
100
AcDbEntity
  8
VHH-025
100
AcDbEllipse
 10
-132.609592
 20
527.166302
 30
0.0
 11
-500.0
 21
0.0
 31
0.0
210
0.0
220
0.0
230
1.0
 40
0.898794
 41
-3.141592653589793
 42
-3.046007003412223
  0
SPLINE
  5
13F2
100
AcDbEntity
  8
VHH-025
100
AcDbSpline
210
0.0
220
0.0
230
1.0
 70
     8
 71
     3
 72
    20
 73
    16
 74
     0
 42
0.0000001
 43
0.0000001
 40
3.141592653589793
 40
3.141592653589793
 40
3.141592653589793
 40
3.141592653589793
 40
3.566852563487359
 40
3.566852563487359
 40
4.097334864786621
 40
4.097334864786621
 40
4.627817166085884
 40
4.627817166085884
 40
5.158299467385146
 40
5.158299467385146
 40
5.688781768684408
 40
5.688781768684408
 40
6.21926406998367
 40
6.21926406998367
 40
6.283185307179586
 40
6.283185307179586
 40
6.283185307179586
 40
6.283185307179586
 10
373.791737298513
 20
574.7015412051114
 30
0.0
 10
373.791737298513
 20
574.6079094179322
 30
0.0
 10
373.8147990595007
 20
574.5140398747353
 30
0.0
 10
373.9188935389092
 20
574.3155401953499
 30
0.0
 10
374.0139836824983
 20
574.2142549173441
 30
0.0
 10
374.2605055758449
 20
574.063844031727
 30
0.0
 10
374.4114047040957
 20
574.0156663583693
 30
0.0
 10
374.7227428608521
 20
573.9928720686584
 30
0.0
 10
374.8822954362749
 20
574.0183587110895
 30
0.0
 10
375.1591957399714
 20
574.1326732638571
 30
0.0
 10
375.2757734078441
 20
574.2208567932839
 30
0.0
 10
375.4366244851944
 20
574.4263696046273
 30
0.0
 10
375.4815278417327
 20
574.5426684718823
 30
0.0
 10
375.4912165250052
 20
574.673393409761
 30
0.0
 10
375.4917372985137
 20
574.6874673186757
 30
0.0
 10
375.4917372985137
 20
574.7015412051114
 30
0.0
  0
SPLINE
  5
13F3
100
AcDbEntity
  8
VHH-025
100
AcDbSpline
210
0.0
220
0.0
230
1.0
 70
     8
 71
     3
 72
    12
 73
     8
 74
     0
 42
0.0000001
 43
0.0000001
 40
1.820596868471746
 40
1.820596868471746
 40
1.820596868471746
 40
1.820596868471746
 40
4.503295473557569
 40
6.216955522489968
 40
7.774552440697402
 40
9.232972112989187
 40
10.8164521343443
 40
10.8164521343443
 40
10.8164521343443
 40
10.8164521343443
 10
370.8552424419731
 20
548.4333369542228
 30
0.0
 10
371.3180629079815
 20
548.4479974493215
 30
0.0
 10
372.0300480371925
 20
548.5817068106935
 30
0.0
 10
372.7391394431624
 20
549.364923090603
 30
0.0
 10
372.7925729734806
 20
550.2671833980129
 30
0.0
 10
372.0707340326034
 20
550.7518270163964
 30
0.0
 10
371.5614759329628
 20
550.7539290813456
 30
0.0
 10
371.2963784255798
 20
550.7550233244783
 30
0.0
  0
SPLINE
  5
13F4
100
AcDbEntity
  8
VHH-025
100
AcDbSpline
210
0.0
220
0.0
230
1.0
 70
     8
 71
     3
 72
    12
 73
     8
 74
     0
 42
0.0000001
 43
0.0000001
 40
0.3004138362153372
 40
0.3004138362153372
 40
0.3004138362153372
 40
0.3004138362153372
 40
0.6531836346659445
 40
2.201425060069765
 40
3.775834883110177
 40
5.170639203720888
 40
5.549375987942882
 40
5.549375987942882
 40
5.549375987942882
 40
5.549375987942882
 10
372.0734990731389
 20
546.5571220457441
 30
0.0
 10
372.0635847843541
 20
546.615242510672
 30
0.0
 10
372.0163741372571
 20
546.9276352444977
 30
0.0
 10
372.0632061071382
 20
547.481448833927
 30
0.0
 10
371.9212758045932
 20
548.3627740513147
 30
0.0
 10
371.285139501605
 20
548.4342724435155
 30
0.0
 10
370.9767165524254
 20
548.4320828407926
 30
0.0
 10
370.8552424419731
 20
548.4333369542228
 30
0.0
  0
SPLINE
  5
13F5
100
AcDbEntity
  8
VHH-025
100
AcDbSpline
210
0.0
220
0.0
230
1.0
 70
     8
 71
     3
 72
    13
 73
     9
 74
     0
 42
0.0000001
 43
0.0000001
 40
84.6955679326532
 40
84.6955679326532
 40
84.6955679326532
 40
84.6955679326532
 40
85.81548028374967
 40
86.6565862794542
 40
87.78626872105837
 40
90.14984869879972
 40
105.9639654671869
 40
109.0014412724087
 40
109.0014412724087
 40
109.0014412724087
 40
109.0014412724087
 10
315.8928251465122
 20
558.3965874588529
 30
0.0
 10
315.9339616122569
 20
558.0189825823026
 30
0.0
 10
316.0110210246275
 20
557.3572200834915
 30
0.0
 10
316.6144357454486
 20
556.4939072621282
 30
0.0
 10
317.7952418462873
 20
555.5768441575292
 30
0.0
 10
324.531817241912
 20
555.7075542287338
 30
0.0
 10
331.4158881570065
 20
555.8039951232212
 30
0.0
 10
337.6489862108265
 20
555.897308733629
 30
0.0
 10
338.6557635050067
 20
555.9125058511035
 30
0.0
  0
SPLINE
  5
13F6
100
AcDbEntity
  8
VHH-025
100
AcDbSpline
210
0.0
220
0.0
230
1.0
 70
     8
 71
     3
 72
    13
 73
     9
 74
     0
 42
0.0000001
 43
0.0000001
 40
0.0
 40
0.0
 40
0.0
 40
0.0
 40
3.284478271109694
 40
5.848013776661736
 40
8.811210366641999
 40
13.3105910935066
 40
22.19952180646416
 40
29.26966130966336
 40
29.26966130966336
 40
29.26966130966336
 40
29.26966130966336
 10
392.3950158625521
 20
543.2177674662398
 30
0.0
 10
392.2468376317365
 20
542.1136587897735
 30
0.0
 10
391.9830062820719
 20
540.1477932190682
 30
0.0
 10
390.1848669283527
 20
537.7197369067362
 30
0.0
 10
387.320365657586
 20
535.7983223500514
 30
0.0
 10
381.712942506273
 20
535.6006041290065
 30
0.0
 10
374.9610472443464
 20
535.5434063784323
 30
0.0
 10
369.6583506308579
 20
535.5126327144189
 30
0.0
 10
367.3044116690107
 20
535.50084159798
 30
0.0
  0
SPLINE
  5
13F7
100
AcDbEntity
  8
VHH-025
100
AcDbSpline
210
0.0
220
0.0
230
1.0
 70
     8
 71
     3
 72
    13
 73
     9
 74
     0
 42
0.0000001
 43
0.0000001
 40
84.6955679326532
 40
84.6955679326532
 40
84.6955679326532
 40
84.6955679326532
 40
85.81548028374967
 40
86.6565862794542
 40
87.78626872105837
 40
90.14984869879972
 40
105.9639654671869
 40
108.7654475349573
 40
108.7654475349573
 40
108.7654475349573
 40
108.7654475349573
 10
388.895015862553
 20
558.3965874588529
 30
0.0
 10
388.8538793968082
 20
558.0189825823026
 30
0.0
 10
388.7768199844376
 20
557.3572200834915
 30
0.0
 10
388.1734052636165
 20
556.4939072621282
 30
0.0
 10
386.9925991627778
 20
555.5768441575292
 30
0.0
 10
380.2560237671532
 20
555.7075542287338
 30
0.0
 10
373.4485300102314
 20
555.8029223321764
 30
0.0
 10
367.294894748672
 20
555.8949736337263
 30
0.0
 10
366.3666943645275
 20
555.9089666238223
 30
0.0
  0
LINE
  5
13F8
100
AcDbEntity
  8
VHH-025
100
AcDbLine
 10
368.948724
 20
546.557122
 30
0.0
 11
369.82036
 21
550.755023
 31
0.0
  0
LINE
  5
13F9
100
AcDbEntity
  8
VHH-025
100
AcDbLine
 10
367.799141
 20
544.402934
 30
0.0
 11
372.31497
 21
544.402934
 31
0.0
  0
LINE
  5
13FA
100
AcDbEntity
  8
VHH-025
100
AcDbLine
 10
337.390408
 20
514.283627
 30
0.0
 11
337.390408
 21
513.494549
 31
0.0
  0
LINE
  5
13FB
100
AcDbEntity
  8
VHH-025
100
AcDbLine
 10
337.390408
 20
503.221057
 30
0.0
 11
337.390408
 21
501.540933
 31
0.0
  0
LINE
  5
13FC
100
AcDbEntity
  8
VHH-025
100
AcDbLine
 10
337.390408
 20
513.494549
 30
0.0
 11
337.390408
 21
503.221057
 31
0.0
  0
LINE
  5
13FD
100
AcDbEntity
  8
VHH-025
100
AcDbLine
 10
337.390408
 20
514.283627
 30
0.0
 11
337.390408
 21
523.960987
 31
0.0
  0
LINE
  5
13FE
100
AcDbEntity
  8
VHH-025
100
AcDbLine
 10
339.986433
 20
525.528119
 30
0.0
 11
364.794384
 21
525.528119
 31
0.0
  0
LINE
  5
13FF
100
AcDbEntity
  8
VHH-025
100
AcDbLine
 10
367.390408
 20
517.907837
 30
0.0
 11
367.390408
 21
527.166302
 31
0.0
  0
LINE
  5
1400
100
AcDbEntity
  8
VHH-025
100
AcDbLine
 10
367.390408
 20
501.540933
 30
0.0
 11
367.390408
 21
503.221057
 31
0.0
  0
LINE
  5
1401
100
AcDbEntity
  8
VHH-025
100
AcDbLine
 10
367.390408
 20
503.221057
 30
0.0
 11
367.390408
 21
513.494549
 31
0.0
  0
LINE
  5
1402
100
AcDbEntity
  8
VHH-025
100
AcDbLine
 10
367.390408
 20
513.494549
 30
0.0
 11
367.390408
 21
517.907837
 31
0.0
  0
LINE
  5
1403
100
AcDbEntity
  8
VHH-025
100
AcDbLine
 10
338.120652
 20
548.240253
 30
0.0
 11
337.771173
 21
546.557122
 31
0.0
  0
LINE
  5
1404
100
AcDbEntity
  8
VHH-025
100
AcDbLine
 10
337.771173
 20
546.557122
 30
0.0
 11
338.022853
 21
546.557122
 31
0.0
  0
LINE
  5
1405
100
AcDbEntity
  8
VHH-025
100
AcDbLine
 10
337.323885
 20
544.402934
 30
0.0
 11
337.907954
 21
544.402934
 31
0.0
  0
LINE
  5
1406
100
AcDbEntity
  8
VHH-025
100
AcDbLine
 10
336.930473
 20
542.508217
 30
0.0
 11
337.816421
 21
542.508217
 31
0.0
  0
LINE
  5
1407
100
AcDbEntity
  8
VHH-025
100
AcDbLine
 10
333.46188
 20
551.255023
 30
0.0
 11
331.063684
 21
539.705033
 31
0.0
  0
LINE
  5
1408
100
AcDbEntity
  8
VHH-025
100
AcDbLine
 10
336.212423
 20
551.255023
 30
0.0
 11
333.814228
 21
539.705033
 31
0.0
  0
LINE
  5
1409
100
AcDbEntity
  8
VHH-025
100
AcDbLine
 10
329.139595
 20
551.255023
 30
0.0
 11
326.741399
 21
539.705033
 31
0.0
  0
LINE
  5
140A
100
AcDbEntity
  8
VHH-025
100
AcDbLine
 10
331.10427
 20
551.255023
 30
0.0
 11
328.706074
 21
539.705033
 31
0.0
  0
LINE
  5
140B
100
AcDbEntity
  8
VHH-025
100
AcDbLine
 10
337.323885
 20
544.402934
 30
0.0
 11
336.452249
 21
540.205033
 31
0.0
  0
LINE
  5
140C
100
AcDbEntity
  8
VHH-025
100
AcDbLine
 10
336.452249
 20
540.205033
 30
0.0
 11
337.717154
 21
540.205033
 31
0.0
  0
CIRCLE
  5
140D
100
AcDbEntity
  8
VHH-025
100
AcDbCircle
 10
374.488132
 20
544.007773
 30
0.0
 40
0.724411
  0
CIRCLE
  5
140E
100
AcDbEntity
  8
VHH-025
100
AcDbCircle
 10
375.436109
 20
550.261906
 30
0.0
 40
0.724411
  0
LINE
  5
140F
100
AcDbEntity
  8
VHH-025
100
AcDbLine
 10
369.174102
 20
540.17532
 30
0.0
 11
370.051459
 21
544.402934
 31
0.0
  0
LINE
  5
1410
100
AcDbEntity
  8
VHH-025
100
AcDbLine
 10
369.338294
 20
548.433337
 30
0.0
 11
370.855242
 21
548.433337
 31
0.0
  0
LINE
  5
1411
100
AcDbEntity
  8
VHH-025
100
AcDbLine
 10
369.82036
 20
550.755023
 30
0.0
 11
371.296378
 21
550.755023
 31
0.0
  0
LINE
  5
1412
100
AcDbEntity
  8
VHH-025
100
AcDbLine
 10
394.422139
 20
511.7
 30
0.0
 11
400.632421
 21
511.7
 31
0.0
  0
LINE
  5
1413
100
AcDbEntity
  8
VHH-025
100
AcDbLine
 10
347.242226
 20
573.154619
 30
0.0
 11
349.954282
 21
573.154619
 31
0.0
  0
CIRCLE
  5
1414
100
AcDbEntity
  8
VHH-025
100
AcDbCircle
 10
357.724774
 20
573.154619
 30
0.0
 40
0.025
  0
CIRCLE
  5
1415
100
AcDbEntity
  8
VHH-025
100
AcDbCircle
 10
351.524774
 20
573.154619
 30
0.0
 40
0.025
  0
LINE
  5
1416
100
AcDbEntity
  8
VHH-025
100
AcDbLine
 10
353.442226
 20
573.154619
 30
0.0
 11
356.154282
 21
573.154619
 31
0.0
  0
ARC
  5
1417
100
AcDbEntity
  8
VHH-025
100
AcDbCircle
 10
332.391737
 20
573.551541
 30
0.0
 40
0.25
100
AcDbArc
 50
225.0
 51
315.0
  0
LWPOLYLINE
  5
1418
100
AcDbEntity
  8
VHH-025
100
AcDbPolyline
 90
        3
 70
     0
 43
0.0
 10
330.412095
 20
473.307607
 10
333.130022
 20
478.920636
 10
337.390408
 20
483.642638
  0
LWPOLYLINE
  5
1419
100
AcDbEntity
  8
VHH-025
100
AcDbPolyline
 90
        4
 70
     0
 43
0.0
 10
367.390408
 20
483.642638
 10
369.152016
 20
482.005126
 10
371.985623
 20
478.407976
 10
374.368719
 20
473.307606
  0
LINE
  5
141A
100
AcDbEntity
  8
VHH-025
100
AcDbLine
 10
337.390408
 20
480.59971
 30
0.0
 11
337.390408
 21
487.908267
 31
0.0
  0
LINE
  5
141B
100
AcDbEntity
  8
VHH-025
100
AcDbLine
 10
367.390408
 20
487.908267
 30
0.0
 11
367.390408
 21
480.59971
 31
0.0
  0
LWPOLYLINE
  5
141C
100
AcDbEntity
  8
VHH-025
100
AcDbPolyline
 90
        3
 70
     0
 43
0.0
 10
367.354608
 20
498.838564
 10
367.373454
 20
497.571102
 10
367.390408
 20
496.757523
  0
LWPOLYLINE
  5
141D
100
AcDbEntity
  8
VHH-025
100
AcDbPolyline
 90
        3
 70
     0
 43
0.0
 10
337.390408
 20
496.757523
 10
337.425853
 20
498.177618
 10
337.426208
 20
498.838564
  0
LINE
  5
141E
100
AcDbEntity
  8
VHH-025
100
AcDbLine
 10
337.390408
 20
487.908267
 30
0.0
 11
337.390408
 21
489.98629
 31
0.0
  0
LINE
  5
141F
100
AcDbEntity
  8
VHH-025
100
AcDbLine
 10
367.390408
 20
489.98629
 30
0.0
 11
367.390408
 21
487.908267
 31
0.0
  0
LINE
  5
1420
100
AcDbEntity
  8
VHH-025
100
AcDbLine
 10
337.390408
 20
496.757523
 30
0.0
 11
337.390408
 21
489.98629
 31
0.0
  0
LINE
  5
1421
100
AcDbEntity
  8
VHH-025
100
AcDbLine
 10
367.390408
 20
489.98629
 30
0.0
 11
367.390408
 21
496.757523
 31
0.0
  0
LWPOLYLINE
  5
1422
100
AcDbEntity
  8
VHH-025
100
AcDbPolyline
 90
        3
 70
     0
 43
0.0
 10
367.390408
 20
501.540933
 10
367.372383
 20
499.608228
 10
367.354608
 20
498.838564
  0
LWPOLYLINE
  5
1423
100
AcDbEntity
  8
VHH-025
100
AcDbPolyline
 90
        3
 70
     0
 43
0.0
 10
337.426208
 20
498.838564
 10
337.408433
 20
499.608228
 10
337.390408
 20
501.540933
  0
LWPOLYLINE
  5
1424
100
AcDbEntity
  8
VHH-025
100
AcDbPolyline
 90
        5
 70
     0
 43
0.0
 10
423.38989
 20
373.269654
 10
422.83086
 20
359.257138
 10
421.220987
 20
345.280357
 10
418.543466
 20
331.285479
 10
414.811637
 20
317.398784
  0
LWPOLYLINE
  5
1425
100
AcDbEntity
  8
VHH-025
100
AcDbPolyline
 90
        5
 70
     0
 43
0.0
 10
422.503175
 20
305.113553
 10
426.333942
 20
319.348292
 10
429.096635
 20
333.702819
 10
430.758942
 20
347.835932
 10
431.384895
 20
362.009067
  0
LINE
  5
1482
100
AcDbEntity
  8
VHH-025
100
AcDbLine
 10
408.274979
 20
427.195796
 30
0.0
 11
414.159447
 21
440.835826
 31
0.0
  0
LINE
  5
1483
100
AcDbEntity
  8
VHH-025
100
AcDbLine
 10
421.140408
 20
462.801175
 30
0.0
 11
421.140408
 21
462.362804
 31
0.0
  0
LWPOLYLINE
  5
1484
100
AcDbEntity
  8
VHH-025
100
AcDbPolyline
 90
        3
 70
     0
 43
0.0
 10
423.429596
 20
374.062958
 10
423.413674
 20
373.872548
 10
423.389875
 20
373.261511
  0
LWPOLYLINE
  5
1485
100
AcDbEntity
  8
VHH-025
100
AcDbPolyline
 90
        9
 70
     0
 43
0.0
 10
421.62166
 20
372.048627
 10
421.571514
 20
373.771197
 10
421.564173
 20
375.476189
 10
421.594593
 20
377.044746
 10
421.648466
 20
378.378846
 10
421.712115
 20
379.477501
 10
421.772591
 20
380.318711
 10
421.814565
 20
380.832967
 10
421.829014
 20
381.0
  0
LWPOLYLINE
  5
1486
100
AcDbEntity
  8
VHH-025
100
AcDbPolyline
 90
        3
 70
     0
 43
0.0
 10
431.384856
 20
372.249034
 10
431.259713
 20
373.548781
 10
430.889119
 20
374.923717
  0
LINE
  5
1487
100
AcDbEntity
  8
VHH-025
100
AcDbLine
 10
431.890408
 20
379.313537
 30
0.0
 11
431.890408
 21
362.0
 31
0.0
  0
LINE
  5
1488
100
AcDbEntity
  8
VHH-025
100
AcDbLine
 10
432.890408
 20
377.85083
 30
0.0
 11
432.890408
 21
364.0
 31
0.0
  0
LWPOLYLINE
  5
1489
100
AcDbEntity
  8
VHH-025
100
AcDbPolyline
 90
        9
 70
     0
 43
0.0
 10
431.384856
 20
362.010082
 10
431.377234
 20
362.259689
 10
431.368655
 20
362.900384
 10
431.362358
 20
363.901005
 10
431.360141
 20
365.180017
 10
431.362358
 20
366.71359
 10
431.368656
 20
368.498001
 10
431.377234
 20
370.42093
 10
431.384856
 20
372.249034
  0
LWPOLYLINE
  5
148A
100
AcDbEntity
  8
VHH-025
100
AcDbPolyline
 90
        9
 70
     0
 43
0.0
 10
422.583437
 20
363.0
 10
422.554768
 20
363.16969
 10
422.469152
 20
363.691247
 10
422.337502
 20
364.542881
 10
422.181119
 20
365.653255
 10
422.014544
 20
367.002113
 10
421.851883
 20
368.586593
 10
421.715829
 20
370.308469
 10
421.62166
 20
372.048627
  0
LWPOLYLINE
  5
148B
100
AcDbEntity
  8
VHH-025
100
AcDbPolyline
 90
        2
 70
     0
 43
0.0
 10
431.384895
 20
362.009067
 10
431.384856
 20
362.010082
  0
LINE
  5
148C
100
AcDbEntity
  8
VHH-025
100
AcDbLine
 10
432.890408
 20
364.0
 30
0.0
 11
431.890408
 21
362.0
 31
0.0
  0
LINE
  5
148D
100
AcDbEntity
  8
VHH-025
100
AcDbLine
 10
431.890408
 20
362.0
 30
0.0
 11
431.384826
 21
362.0
 31
0.0
  0
LINE
  5
148E
100
AcDbEntity
  8
VHH-025
100
AcDbLine
 10
423.083249
 20
363.0
 30
0.0
 11
422.583437
 21
363.0
 31
0.0
  0
LINE
  5
148F
100
AcDbEntity
  8
VHH-025
100
AcDbLine
 10
422.583437
 20
363.0
 30
0.0
 11
422.77157
 21
358.511282
 31
0.0
  0
LWPOLYLINE
  5
1490
100
AcDbEntity
  8
VHH-025
100
AcDbPolyline
 90
        6
 70
     0
 43
0.0
 10
424.15434
 20
378.582183
 10
424.127024
 20
378.050798
 10
424.048034
 20
377.468344
 10
423.787641
 20
376.177254
 10
423.517585
 20
374.766751
 10
423.429596
 20
374.062958
  0
LWPOLYLINE
  5
1491
100
AcDbEntity
  8
VHH-025
100
AcDbPolyline
 90
        7
 70
     0
 43
0.0
 10
430.889119
 20
374.923717
 10
430.84896
 20
375.037353
 10
430.513981
 20
375.870355
 10
430.046072
 20
376.82325
 10
429.510652
 20
377.741752
 10
428.945344
 20
378.582591
 10
428.390408
 20
379.313537
  0
LINE
  5
1492
100
AcDbEntity
  8
VHH-025
100
AcDbLine
 10
432.890408
 20
380.0
 30
0.0
 11
431.890408
 21
382.0
 31
0.0
  0
LINE
  5
1493
100
AcDbEntity
  8
VHH-025
100
AcDbLine
 10
431.890408
 20
382.0
 30
0.0
 11
431.890408
 21
379.313537
 31
0.0
  0
LINE
  5
1494
100
AcDbEntity
  8
VHH-025
100
AcDbLine
 10
431.890408
 20
382.0
 30
0.0
 11
426.390408
 21
382.0
 31
0.0
  0
LINE
  5
1495
100
AcDbEntity
  8
VHH-025
100
AcDbLine
 10
424.15434
 20
378.582183
 30
0.0
 11
424.15434
 21
381.0
 31
0.0
  0
LINE
  5
1496
100
AcDbEntity
  8
VHH-025
100
AcDbLine
 10
424.15434
 20
381.0
 30
0.0
 11
421.829014
 21
381.0
 31
0.0
  0
ARC
  5
1497
100
AcDbEntity
  8
VHH-025
100
AcDbCircle
 10
426.390408
 20
379.0
 30
0.0
 40
3.0
100
AcDbArc
 50
90.0
 51
138.189685
  0
LINE
  5
1498
100
AcDbEntity
  8
VHH-025
100
AcDbLine
 10
421.640408
 20
385.5
 30
0.0
 11
421.829014
 21
381.0
 31
0.0
  0
LINE
  5
1499
100
AcDbEntity
  8
VHH-025
100
AcDbLine
 10
432.890408
 20
380.0
 30
0.0
 11
432.890408
 21
377.85083
 31
0.0
  0
SPLINE
  5
149A
100
AcDbEntity
  8
VHH-025
100
AcDbSpline
210
0.0
220
0.0
230
-1.0
 70
     8
 71
     3
 72
    13
 73
     9
 74
     7
 42
0.0000001
 43
0.0000001
 44
0.0000000001
 40
0.0
 40
0.0
 40
0.0
 40
0.0
 40
5.157331242127678
 40
11.03348381863841
 40
14.6191666271849
 40
16.78242660352459
 40
17.89174384221371
 40
18.52503597702162
 40
18.52503597702162
 40
18.52503597702162
 40
18.52503597702162
 10
456.9346347847776
 20
523.000000111484
 30
0.0
 10
456.8456190040819
 20
524.7169780778859
 30
0.0
 10
456.6551805525263
 20
528.3902439046971
 30
0.0
 10
456.5263966229898
 20
533.2602549082191
 30
0.0
 10
456.5052738356596
 20
537.139990012547
 30
0.0
 10
456.7507891189719
 20
539.4167616270008
 30
0.0
 10
457.0288860895821
 20
540.693236466302
 30
0.0
 10
457.2327029812508
 20
541.2376587941423
 30
0.0
 10
457.3067733015404
 20
541.4355105809391
 30
0.0
 11
456.9346347847776
 21
523.000000111484
 31
0.0
 11
456.6879595025302
 21
528.1514287333475
 31
0.0
 11
456.5317361957831
 21
534.0255042674944
 31
0.0
 11
456.5868137658808
 21
537.6107640439649
 31
0.0
 11
456.8391415093292
 21
539.7592575708622
 31
0.0
 11
457.095094162124
 21
540.8386430328637
 31
0.0
 11
457.3067733015404
 21
541.4355105809391
 31
0.0
  0
SPLINE
  5
149B
100
AcDbEntity
  8
VHH-025
100
AcDbSpline
210
0.0
220
0.0
230
1.0
 70
     8
 71
     3
 72
    17
 73
    13
 74
    11
 42
0.0000001
 43
0.0000001
 44
0.0000000001
 40
0.0
 40
0.0
 40
0.0
 40
0.0
 40
0.5545798661037315
 40
1.653562178450281
 40
2.750923934510204
 40
3.848571212511028
 40
4.674193321130027
 40
5.488636099266271
 40
8.524172564826855
 40
12.84394436806068
 40
16.51294489443541
 40
20.18194542081104
 40
20.18194542081104
 40
20.18194542081104
 40
20.18194542081104
 10
457.5790723334957
 20
541.8853574984495
 30
0.0
 10
457.6069821389308
 20
541.7026698175614
 30
0.0
 10
457.6901993660537
 20
541.1579593835025
 30
0.0
 10
457.9245306994635
 20
540.2646237353082
 30
0.0
 10
458.4558657992574
 20
539.29104811889
 30
0.0
 10
459.1248792897451
 20
538.5299702545466
 30
0.0
 10
459.842384493085
 20
537.9564970038739
 30
0.0
 10
460.7156102834485
 20
536.6443091403933
 30
0.0
 10
461.5300646442403
 20
534.0215989233558
 30
0.0
 10
462.5824176372897
 20
530.4990277768239
 30
0.0
 10
463.0121698406962
 20
526.6252619162188
 30
0.0
 10
463.3814115421136
 20
524.208420738892
 30
0.0
 10
463.5660323928223
 20
523.0000001502284
 30
0.0
 11
457.5790723334957
 21
541.8853574984495
 31
0.0
 11
457.6692850246882
 21
541.3381642069744
 31
0.0
 11
457.9665277324592
 21
540.2801429900192
 31
0.0
 11
458.4888334280903
 21
539.3150525362407
 31
0.0
 11
459.2105620397733
 21
538.4880474830634
 31
0.0
 11
459.8140096062916
 21
537.9245735256318
 31
0.0
 11
460.2857923280244
 21
537.2606924351248
 31
0.0
 11
461.3967332057455
 21
534.4357513738004
 31
0.0
 11
462.5076740834665
 21
530.2612767004766
 31
0.0
 11
463.0368532381444
 21
526.630638425353
 31
0.0
 11
463.5660323928223
 21
523.0000001502284
 31
0.0
  0
SPLINE
  5
149C
100
AcDbEntity
  8
VHH-025
100
AcDbSpline
210
0.0
220
0.0
230
1.0
 70
     8
 71
     3
 72
    11
 73
     7
 74
     5
 42
0.0000001
 43
0.0000001
 44
0.0000000001
 40
0.0
 40
0.0
 40
0.0
 40
0.0
 40
0.6501585836434782
 40
1.328696847748736
 40
2.007498148688289
 40
2.665365116565222
 40
2.665365116565222
 40
2.665365116565222
 40
2.665365116565222
 10
462.5091845468978
 20
513.2798863506823
 30
0.0
 10
462.470695183962
 20
513.0617176408109
 30
0.0
 10
462.3920363821074
 20
512.6158570702111
 30
0.0
 10
461.9016320657504
 20
512.1199186768718
 30
0.0
 10
461.3138883839599
 20
511.7706116462878
 30
0.0
 10
460.8655382183664
 20
511.7232902761227
 30
0.0
 10
460.6448740708983
 20
511.7000001546821
 30
0.0
 11
462.5091845468978
 21
513.2798863506823
 31
0.0
 11
462.3348338434543
 21
512.6535413849532
 31
0.0
 11
461.8856289344575
 21
512.1449854631627
 31
0.0
 11
461.2926947925598
 21
511.814530761987
 31
0.0
 11
460.6448740708983
 21
511.7000001546821
 31
0.0
  0
SPLINE
  5
149D
100
AcDbEntity
  8
VHH-025
100
AcDbSpline
210
0.0
220
0.0
230
1.0
 70
     8
 71
     3
 72
    12
 73
     8
 74
     6
 42
0.0000001
 43
0.0000001
 44
0.0000000001
 40
0.0
 40
0.0
 40
0.0
 40
0.0
 40
0.5662025144866722
 40
1.132136061660013
 40
1.697787119143206
 40
2.263116602110341
 40
2.828292171028613
 40
2.828292171028613
 40
2.828292171028613
 40
2.828292171028613
 10
456.5436441851042
 20
513.4078597155212
 30
0.0
 10
456.5051099488301
 20
513.2209906306527
 30
0.0
 10
456.4280597814812
 20
512.8473412307013
 30
0.0
 10
456.0891512524609
 20
512.3795073738381
 30
0.0
 10
455.6739229898592
 20
511.9881665273053
 30
0.0
 10
455.1414725430801
 20
511.7617161549871
 30
0.0
 10
454.7659088711546
 20
511.7205702874982
 30
0.0
 10
454.5781526009887
 20
511.7000001546821
 30
0.0
 11
456.5436441851042
 21
513.4078597155212
 31
0.0
 11
456.3907876958983
 21
512.8626806796819
 31
0.0
 11
456.0763360163973
 21
512.392148086682
 31
0.0
 11
455.6542615968983
 21
512.0155656876822
 31
0.0
 11
455.1362527913979
 21
511.7891494741816
 31
0.0
 11
454.5781526009887
 21
511.7000001546821
 31
0.0
  0
LWPOLYLINE
  5
149E
100
AcDbEntity
  8
VHH-025
100
AcDbPolyline
 90
        6
 70
     0
 43
0.0
 10
406.426963
 20
501.003762
 10
406.61559
 20
502.077675
 10
406.937205
 20
504.277734
 10
407.173787
 20
506.385149
 10
407.32012
 20
508.396083
 10
407.356939
 20
509.339362
  0
LWPOLYLINE
  5
149F
100
AcDbEntity
  8
VHH-025
100
AcDbPolyline
 90
        6
 70
     0
 43
0.0
 10
432.381402
 20
510.3
 10
432.379853
 20
510.299999
 10
432.010353
 20
510.228614
 10
431.685585
 20
510.01822
 10
431.465009
 20
509.70028
 10
431.381653
 20
509.322402
  0
LINE
  5
14A0
100
AcDbEntity
  8
VHH-025
100
AcDbLine
 10
456.956013
 20
522.0
 30
0.0
 11
456.543644
 21
513.40786
 31
0.0
  0
LINE
  5
14A1
100
AcDbEntity
  8
VHH-025
100
AcDbLine
 10
424.494423
 20
511.7
 30
0.0
 11
448.078376
 21
511.7
 31
0.0
  0
LINE
  5
14A2
100
AcDbEntity
  8
VHH-025
100
AcDbLine
 10
421.522458
 20
511.7
 30
0.0
 11
424.494423
 21
511.7
 31
0.0
  0
LINE
  5
14A3
100
AcDbEntity
  8
VHH-025
100
AcDbLine
 10
418.547354
 20
511.7
 30
0.0
 11
421.522458
 21
511.7
 31
0.0
  0
LINE
  5
14A4
100
AcDbEntity
  8
VHH-025
100
AcDbLine
 10
412.587945
 20
511.7
 30
0.0
 11
418.547354
 21
511.7
 31
0.0
  0
LINE
  5
14A5
100
AcDbEntity
  8
VHH-025
100
AcDbLine
 10
439.528366
 20
510.3
 30
0.0
 11
439.528366
 21
510.9
 31
0.0
  0
LINE
  5
14A6
100
AcDbEntity
  8
VHH-025
100
AcDbLine
 10
449.870738
 20
511.7
 30
0.0
 11
450.077425
 21
511.7
 31
0.0
  0
LINE
  5
14A7
100
AcDbEntity
  8
VHH-025
100
AcDbLine
 10
449.743959
 20
511.7
 30
0.0
 11
449.870738
 21
511.7
 31
0.0
  0
LINE
  5
14A8
100
AcDbEntity
  8
VHH-025
100
AcDbLine
 10
449.674762
 20
511.7
 30
0.0
 11
449.743959
 21
511.7
 31
0.0
  0
LINE
  5
14A9
100
AcDbEntity
  8
VHH-025
100
AcDbLine
 10
449.602403
 20
511.7
 30
0.0
 11
449.674762
 21
511.7
 31
0.0
  0
LINE
  5
14AA
100
AcDbEntity
  8
VHH-025
100
AcDbLine
 10
449.282594
 20
511.7
 30
0.0
 11
449.602403
 21
511.7
 31
0.0
  0
LINE
  5
14AB
100
AcDbEntity
  8
VHH-025
100
AcDbLine
 10
449.104563
 20
511.7
 30
0.0
 11
449.282594
 21
511.7
 31
0.0
  0
LINE
  5
14AC
100
AcDbEntity
  8
VHH-025
100
AcDbLine
 10
448.914636
 20
511.7
 30
0.0
 11
449.104563
 21
511.7
 31
0.0
  0
LINE
  5
14AD
100
AcDbEntity
  8
VHH-025
100
AcDbLine
 10
448.510992
 20
511.7
 30
0.0
 11
448.914636
 21
511.7
 31
0.0
  0
LINE
  5
14AE
100
AcDbEntity
  8
VHH-025
100
AcDbLine
 10
448.078376
 20
511.7
 30
0.0
 11
448.510992
 21
511.7
 31
0.0
  0
ARC
  5
14AF
100
AcDbEntity
  8
VHH-025
100
AcDbCircle
 10
447.892825
 20
510.7
 30
0.0
 40
1.6
100
AcDbArc
 50
270.0
 51
38.682187
  0
LINE
  5
14B0
100
AcDbEntity
  8
VHH-025
100
AcDbLine
 10
444.244297
 20
509.7
 30
0.0
 11
443.244297
 21
508.7
 31
0.0
  0
LINE
  5
14B1
100
AcDbEntity
  8
VHH-025
100
AcDbLine
 10
444.492825
 20
509.1
 30
0.0
 11
443.492825
 21
508.1
 31
0.0
  0
LINE
  5
14B2
100
AcDbEntity
  8
VHH-025
100
AcDbLine
 10
447.892825
 20
509.1
 30
0.0
 11
444.492825
 21
509.1
 31
0.0
  0
ARC
  5
14B3
100
AcDbEntity
  8
VHH-025
100
AcDbCircle
 10
447.892825
 20
510.7
 30
0.0
 40
1.0
100
AcDbArc
 50
270.0
 51
90.0
  0
LINE
  5
14B4
100
AcDbEntity
  8
VHH-025
100
AcDbLine
 10
444.244297
 20
509.7
 30
0.0
 11
447.892825
 21
509.7
 31
0.0
  0
LINE
  5
14B5
100
AcDbEntity
  8
VHH-025
100
AcDbLine
 10
434.492825
 20
508.7
 30
0.0
 11
434.492825
 21
509.7
 31
0.0
  0
LINE
  5
14B6
100
AcDbEntity
  8
VHH-025
100
AcDbLine
 10
434.492825
 20
508.1
 30
0.0
 11
434.492825
 21
508.7
 31
0.0
  0
LINE
  5
14B7
100
AcDbEntity
  8
VHH-025
100
AcDbLine
 10
443.492825
 20
508.1
 30
0.0
 11
434.492825
 21
508.1
 31
0.0
  0
LINE
  5
14B8
100
AcDbEntity
  8
VHH-025
100
AcDbLine
 10
443.244297
 20
508.7
 30
0.0
 11
434.492825
 21
508.7
 31
0.0
  0
LINE
  5
14B9
100
AcDbEntity
  8
VHH-025
100
AcDbLine
 10
434.492825
 20
509.7
 30
0.0
 11
444.244297
 21
509.7
 31
0.0
  0
LINE
  5
14BA
100
AcDbEntity
  8
VHH-025
100
AcDbLine
 10
461.44877
 20
523.0
 30
0.0
 11
461.589546
 21
522.0
 31
0.0
  0
LINE
  5
14BB
100
AcDbEntity
  8
VHH-025
100
AcDbLine
 10
463.587284
 20
522.0
 30
0.0
 11
462.509185
 21
513.279886
 31
0.0
  0
LWPOLYLINE
  5
14BC
100
AcDbEntity
  8
VHH-025
100
AcDbPolyline
 90
        6
 70
     0
 43
0.0
 10
431.381653
 20
509.322402
 10
431.128894
 20
505.187842
 10
430.558264
 20
500.609171
 10
428.543836
 20
490.410015
 10
424.309008
 20
475.584507
 10
420.999068
 20
466.761413
  0
LWPOLYLINE
  5
14BD
100
AcDbEntity
  8
VHH-025
100
AcDbPolyline
 90
       17
 70
     0
 43
0.0
 10
416.099809
 20
486.025477
 10
416.531169
 20
487.261587
 10
416.850563
 20
488.208298
 10
417.39686
 20
489.872479
 10
417.751735
 20
490.988517
 10
418.197857
 20
492.437923
 10
418.573122
 20
493.704505
 10
418.928877
 20
494.953498
 10
419.309958
 20
496.35529
 10
419.582479
 20
497.407767
 10
419.955405
 20
498.934908
 10
420.150838
 20
499.786185
 10
420.627626
 20
502.077695
 10
421.008123
 20
504.277746
 10
421.287683
 20
506.385155
 10
421.460405
 20
508.396084
 10
421.503824
 20
509.339293
  0
SPLINE
  5
1522
100
AcDbEntity
  8
VHH-025
100
AcDbSpline
210
0.0
220
0.0
230
-1.0
 70
     8
 71
     3
 72
    15
 73
    11
 74
     9
 42
0.0000001
 43
0.0000001
 44
0.0000000001
 40
0.0
 40
0.0
 40
0.0
 40
0.0
 40
8.727930916723241
 40
16.25763323255802
 40
20.36216076943306
 40
21.62307303412737
 40
23.69549543386547
 40
25.38624445710604
 40
45.72281463409047
 40
79.43205808847196
 40
79.43205808847196
 40
79.43205808847196
 40
79.43205808847196
 10
17.25590066246331
 20
585.5000001546823
 30
0.0
 10
17.95467921952597
 20
588.3165902787387
 30
0.0
 10
19.25630335013558
 20
593.563090238496
 30
0.0
 10
21.18639030713681
 20
600.1571665177075
 30
0.0
 10
23.49280898512041
 20
603.7812058379049
 30
0.0
 10
25.03106280405322
 20
605.7824605104723
 30
0.0
 10
26.72081037729641
 20
606.3205618189428
 30
0.0
 10
34.65683309633629
 20
607.1052661239025
 30
0.0
 10
53.21775558597548
 20
609.0216375837609
 30
0.0
 10
71.18584189963283
 20
610.0672750766847
 30
0.0
 10
82.39282640518013
 20
610.719456003304
 30
0.0
 11
17.25590066246331
 21
585.5000001546823
 31
0.0
 11
19.4212345512451
 21
593.9550641542736
 31
0.0
 11
21.92075664642743
 21
601.0577964637995
 31
0.0
 11
24.08919188655363
 21
604.5427691911454
 31
0.0
 11
24.92500615912195
 21
605.4868635937491
 31
0.0
 11
26.84115452061178
 21
606.2763634732273
 31
0.0
 11
28.51726315849646
 21
606.4983817013017
 31
0.0
 11
48.76028116016186
 21
608.4467935539814
 31
0.0
 11
82.39282640518013
 21
610.719456003304
 31
0.0
  0
LINE
  5
1526
100
AcDbEntity
  8
VHH-025
100
AcDbLine
 10
44.284525
 20
587.734137
 30
0.0
 11
66.628294
 21
588.778119
 31
0.0
  0
LINE
  5
1527
100
AcDbEntity
  8
VHH-025
100
AcDbLine
 10
45.048614
 20
585.745316
 30
0.0
 11
59.216064
 21
586.442668
 31
0.0
  0
LINE
  5
1528
100
AcDbEntity
  8
VHH-025
100
AcDbLine
 10
46.094177
 20
585.135512
 30
0.0
 11
58.119846
 21
585.753763
 31
0.0
  0
SPLINE
  5
1540
100
AcDbEntity
  8
VHH-025
100
AcDbSpline
210
0.0
220
0.0
230
-1.0
 70
     8
 71
     3
 72
    12
 73
     8
 74
     6
 42
0.0000001
 43
0.0000001
 44
0.0000000001
 40
0.0
 40
0.0
 40
0.0
 40
0.0
 40
0.4606097870385322
 40
0.8428341308475348
 40
1.231136252854428
 40
1.532631450481291
 40
1.823032378360188
 40
1.823032378360188
 40
1.823032378360188
 40
1.823032378360188
 10
45.01999602232354
 20
583.9202051532484
 30
0.0
 10
45.03042007936069
 20
584.0740984375372
 30
0.0
 10
45.04949425298887
 20
584.3556958246463
 30
0.0
 10
45.21384921391869
 20
584.7431231334704
 30
0.0
 10
45.48914788065576
 20
584.9909754753487
 30
0.0
 10
45.80163879084574
 20
585.101669502636
 30
0.0
 10
45.99789055990233
 20
585.124372972142
 30
0.0
 10
46.09417721118461
 20
585.1355119344134
 30
0.0
 11
45.01999602232354
 21
583.9202051532484
 31
0.0
 11
45.07917620309399
 21
584.3769973183734
 31
0.0
 11
45.23641698602751
 21
584.7253804195461
 31
0.0
 11
45.5249924925165
 21
584.9851932656674
 31
0.0
 11
45.80713539622411
 21
585.0914699615113
 31
0.0
 11
46.09417721118461
 21
585.1355119344134
 31
0.0
  0
SPLINE
  5
1541
100
AcDbEntity
  8
VHH-025
100
AcDbSpline
210
0.0
220
0.0
230
-1.0
 70
     8
 71
     3
 72
    11
 73
     7
 74
     5
 42
0.0000001
 43
0.0000001
 44
0.0000000001
 40
0.0
 40
0.0
 40
0.0
 40
0.0
 40
0.7911843907099164
 40
1.600893155509642
 40
2.251444458122564
 40
2.582196256358045
 40
2.582196256358045
 40
2.582196256358045
 40
2.582196256358045
 10
42.60336968756837
 20
586.0385176264108
 30
0.0
 10
42.6468301666378
 20
586.3045943193704
 30
0.0
 10
42.7347686855145
 20
586.842977484662
 30
0.0
 10
43.30547015071134
 20
587.3992969230036
 30
0.0
 10
43.85720355503336
 20
587.6387947754947
 30
0.0
 10
44.17680295183532
 20
587.7101023783372
 30
0.0
 10
44.28452509712951
 20
587.7341368666084
 30
0.0
 11
42.60336968756837
 21
586.0385176264108
 31
0.0
 11
42.81138765992454
 21
586.8018663431057
 31
0.0
 11
43.37031662248409
 21
587.3877218701818
 31
0.0
 11
43.9633242910977
 21
587.6552268277
 31
0.0
 11
44.28452509712951
 21
587.7341368666084
 31
0.0
  0
LINE
  5
1542
100
AcDbEntity
  8
VHH-025
100
AcDbLine
 10
7.390652
 20
585.5
 30
0.0
 11
17.255901
 21
585.5
 31
0.0
  0
ARC
  5
1543
100
AcDbEntity
  8
VHH-025
100
AcDbCircle
 10
45.073196
 20
585.24592
 30
0.0
 40
0.5
100
AcDbArc
 50
92.817949
 51
179.819431
  0
SPLINE
  5
1581
100
AcDbEntity
  8
VHH-025
100
AcDbSpline
210
0.0
220
0.0
230
-1.0
 70
     8
 71
     3
 72
    15
 73
    11
 74
     9
 42
0.0000001
 43
0.0000001
 44
0.0000000001
 40
0.0
 40
0.0
 40
0.0
 40
0.0
 40
8.727930916723241
 40
16.25763323255802
 40
20.36216076943229
 40
21.62307303412728
 40
23.69549543386538
 40
25.38624445710595
 40
45.72281463409038
 40
79.43205808847188
 40
79.43205808847188
 40
79.43205808847188
 40
79.43205808847188
 10
457.5319414762106
 20
585.5000001546823
 30
0.0
 10
456.8331629191479
 20
588.3165902787387
 30
0.0
 10
455.531538788538
 20
593.563090238496
 30
0.0
 10
453.6014518315381
 20
600.1571665177075
 30
0.0
 10
451.2950331535527
 20
603.781205837904
 30
0.0
 10
449.7567793346213
 20
605.7824605104724
 30
0.0
 10
448.0670317613775
 20
606.3205618189428
 30
0.0
 10
440.1310090423382
 20
607.1052661239026
 30
0.0
 10
421.5700865526982
 20
609.0216375837607
 30
0.0
 10
403.6020002390411
 20
610.0672750766847
 30
0.0
 10
392.3950157334938
 20
610.719456003304
 30
0.0
 11
457.5319414762106
 21
585.5000001546823
 31
0.0
 11
455.3666075874288
 21
593.9550641542736
 31
0.0
 11
452.8670854922466
 21
601.0577964637995
 31
0.0
 11
450.6986502521203
 21
604.5427691911445
 31
0.0
 11
449.862835979552
 21
605.4868635937491
 31
0.0
 11
447.9466876180622
 21
606.2763634732273
 31
0.0
 11
446.2705789801775
 21
606.4983817013017
 31
0.0
 11
426.0275609785121
 21
608.4467935539814
 31
0.0
 11
392.3950157334938
 21
610.719456003304
 31
0.0
  0
SPLINE
  5
15A3
100
AcDbEntity
  8
VHH-025
100
AcDbSpline
210
0.0
220
0.0
230
-1.0
 70
     8
 71
     3
 72
    15
 73
    11
 74
     9
 42
0.0000001
 43
0.0000001
 44
0.0000000001
 40
0.0
 40
0.0
 40
0.0
 40
0.0
 40
8.727930916723241
 40
16.25763323255802
 40
20.36216076943306
 40
21.62307303412737
 40
23.69549543386547
 40
25.38624445710604
 40
45.72281463409047
 40
79.43205808847196
 40
79.43205808847196
 40
79.43205808847196
 40
79.43205808847196
 10
227.5319426058195
 20
585.5000001546823
 30
0.0
 10
226.8331640487568
 20
588.3165902787387
 30
0.0
 10
225.5315399181471
 20
593.563090238496
 30
0.0
 10
223.6014529611461
 20
600.1571665177075
 30
0.0
 10
221.2950342831623
 20
603.7812058379049
 30
0.0
 10
219.7567804642296
 20
605.7824605104723
 30
0.0
 10
218.0670328909864
 20
606.3205618189428
 30
0.0
 10
210.1310101719463
 20
607.1052661239025
 30
0.0
 10
191.5700876823074
 20
609.0216375837609
 30
0.0
 10
173.60200136865
 20
610.0672750766847
 30
0.0
 10
162.3950168631026
 20
610.719456003304
 30
0.0
 11
227.5319426058195
 21
585.5000001546823
 31
0.0
 11
225.3666087170377
 21
593.9550641542736
 31
0.0
 11
222.8670866218553
 21
601.0577964637995
 31
0.0
 11
220.6986513817291
 21
604.5427691911454
 31
0.0
 11
219.8628371091608
 21
605.4868635937491
 31
0.0
 11
217.946688747671
 21
606.2763634732273
 31
0.0
 11
216.2705801097863
 21
606.4983817013017
 31
0.0
 11
196.0275621081209
 21
608.4467935539814
 31
0.0
 11
162.3950168631026
 21
610.719456003304
 31
0.0
  0
ARC
  5
15A4
100
AcDbEntity
  8
VHH-025
100
AcDbCircle
 10
126.687421
 20
-119.149534
 30
0.0
 40
730.516587
100
AcDbArc
 50
87.19827
 51
90.336663
  0
SPLINE
  5
15A5
100
AcDbEntity
  8
VHH-025
100
AcDbSpline
210
0.0
220
0.0
230
-1.0
 70
     8
 71
     3
 72
    14
 73
    10
 74
     0
 42
0.0000001
 43
0.0000001
 40
0.0
 40
0.0
 40
0.0
 40
0.0
 40
8.543455177382728
 40
32.60806185346405
 40
34.09251365044104
 40
35.82256549595564
 40
37.21403762249804
 40
38.48665207093368
 40
38.6143838058074
 40
38.6143838058074
 40
38.6143838058074
 40
38.6143838058074
 10
122.3961048401606
 20
608.3729801514037
 30
0.0
 10
125.2453913181498
 20
608.3609811172355
 30
0.0
 10
136.1203485554096
 20
608.3151840433101
 30
0.0
 10
147.8900770336922
 20
608.231226788931
 30
0.0
 10
156.5784690613136
 20
607.9590829833205
 30
0.0
 10
158.0299831450611
 20
607.238275151918
 30
0.0
 10
158.8603885716756
 20
605.9360331845164
 30
0.0
 10
158.8844798196459
 20
604.9915641575571
 30
0.0
 10
158.8941542759794
 20
604.5193440493376
 30
0.0
 10
158.8950169921608
 20
604.4762831537054
 30
0.0
  0
ARC
  5
15A6
100
AcDbEntity
  8
VHH-025
100
AcDbCircle
 10
118.100423
 20
-119.149534
 30
0.0
 40
730.516587
100
AcDbArc
 50
89.663337
 51
92.80173
  0
SPLINE
  5
15A7
100
AcDbEntity
  8
VHH-025
100
AcDbSpline
210
0.0
220
0.0
230
-1.0
 70
     8
 71
     3
 72
    20
 73
    16
 74
     0
 42
0.0000001
 43
0.0000001
 40
0.0
 40
0.0
 40
0.0
 40
0.0
 40
0.411372432094715
 40
0.411372432094715
 40
0.7549641539760199
 40
0.7549641539760199
 40
1.460265566936419
 40
1.460265566936419
 40
1.780008105651267
 40
1.780008105651267
 40
2.128014443002301
 40
2.128014443002301
 40
2.476020780353334
 40
2.476020780353334
 40
2.570156969732271
 40
2.570156969732271
 40
2.570156969732271
 40
2.570156969732271
 10
66.57683508659466
 20
588.0800127985576
 30
0.0
 10
66.71555628765145
 20
588.0697873846684
 30
0.0
 10
66.83775553094438
 20
588.0601437260475
 30
0.0
 10
67.0254335001946
 20
588.0325845736506
 30
0.0
 10
67.09647289669828
 20
588.0165616940011
 30
0.0
 10
67.27314304546871
 20
587.9578439158931
 30
0.0
 10
67.37025891787652
 20
587.8945793828243
 30
0.0
 10
67.47691226584811
 20
587.7755918343955
 30
0.0
 10
67.50551295683817
 20
587.7339537645512
 30
0.0
 10
67.549403137431
 20
587.6489294260572
 30
0.0
 10
67.56190665457052
 20
587.6138866018773
 30
0.0
 10
67.58652244616769
 20
587.4890743606993
 30
0.0
 10
67.59522612915862
 20
587.4031906175978
 30
0.0
 10
67.60359851643989
 20
587.2677466571968
 30
0.0
 10
67.60528990627517
 20
587.2374127361117
 30
0.0
 10
67.60705672056065
 20
587.2056418385055
 30
0.0
  0
SPLINE
  5
15A8
100
AcDbEntity
  8
VHH-025
100
AcDbSpline
210
0.0
220
0.0
230
-1.0
 70
     8
 71
     3
 72
    11
 73
     7
 74
     5
 42
0.0000001
 43
0.0000001
 44
0.0000000001
 40
0.0
 40
0.0
 40
0.0
 40
0.0
 40
0.8012084873059352
 40
1.355387018409438
 40
1.955784421318328
 40
2.570156969732353
 40
2.570156969732353
 40
2.570156969732353
 40
2.570156969732353
 10
66.628293859937
 20
588.7781188038643
 30
0.0
 10
66.89847385982317
 20
588.7582033021062
 30
0.0
 10
67.35553150496983
 20
588.7245126797827
 30
0.0
 10
67.93149652331983
 20
588.3786628649517
 30
0.0
 10
68.27164618261716
 20
587.8618438529627
 30
0.0
 10
68.29444584040182
 20
587.4518598500722
 30
0.0
 10
68.30597681697963
 20
587.2445095477451
 30
0.0
 11
66.628293859937
 21
588.7781188038643
 31
0.0
 11
67.41859973584997
 21
588.6463930940408
 31
0.0
 11
67.8906994394074
 21
588.3561591982997
 31
0.0
 11
68.21746755976528
 21
587.8524731483266
 31
0.0
 11
68.30597681697963
 21
587.2445095477451
 31
0.0
  0
SPLINE
  5
15A9
100
AcDbEntity
  8
VHH-025
100
AcDbSpline
210
0.0
220
0.0
230
-1.0
 70
     8
 71
     3
 72
    11
 73
     7
 74
     5
 42
0.0000001
 43
0.0000001
 44
0.0000000001
 40
0.0
 40
0.0
 40
0.0
 40
0.0
 40
0.3788822097076336
 40
0.7856242620079092
 40
1.206550869508587
 40
1.477512281568232
 40
1.477512281568232
 40
1.477512281568232
 40
1.477512281568232
 10
58.11984608354396
 20
585.7537630751848
 30
0.0
 10
58.24797832663536
 20
585.7545274824937
 30
0.0
 10
58.51366459096479
 20
585.7561125052598
 30
0.0
 10
58.87389914273725
 20
585.5049528597435
 30
0.0
 10
58.97556374946461
 20
585.1335306680005
 30
0.0
 10
58.97797520128619
 20
584.9036668463553
 30
0.0
 10
58.97891958877699
 20
584.8136461725853
 30
0.0
 11
58.11984608354396
 21
585.7537630751848
 31
0.0
 11
58.49700344472513
 21
585.7176513909289
 31
0.0
 11
58.82848208833639
 21
585.4819375688075
 31
0.0
 11
58.96663659196383
 21
585.0843290401899
 31
0.0
 11
58.97891958877699
 21
584.8136461725853
 31
0.0
  0
LINE
  5
15AA
100
AcDbEntity
  8
VHH-025
100
AcDbLine
 10
61.685993
 20
587.846433
 30
0.0
 11
66.660965
 21
588.078882
 31
0.0
  0
CIRCLE
  5
15AB
100
AcDbEntity
  8
VHH-025
100
AcDbCircle
 10
64.581312
 20
577.554525
 30
0.0
 40
2.21318
  0
CIRCLE
  5
15AC
100
AcDbEntity
  8
VHH-025
100
AcDbCircle
 10
64.581312
 20
577.554525
 30
0.0
 40
1.51318
  0
ARC
  5
15AD
100
AcDbEntity
  8
VHH-025
100
AcDbCircle
 10
59.240646
 20
585.943273
 30
0.0
 40
0.5
100
AcDbArc
 50
359.745727
 51
92.817949
  0
LINE
  5
15AE
100
AcDbEntity
  8
VHH-025
100
AcDbLine
 10
100.891738
 20
579.551541
 30
0.0
 11
100.891738
 21
576.801541
 31
0.0
  0
ARC
  5
15AF
100
AcDbEntity
  8
VHH-025
100
AcDbCircle
 10
101.141738
 20
579.551541
 30
0.0
 40
0.25
100
AcDbArc
 50
90.0
 51
180.0
  0
LINE
  5
15B0
100
AcDbEntity
  8
VHH-025
100
AcDbLine
 10
103.641738
 20
579.801541
 30
0.0
 11
101.141738
 21
579.801541
 31
0.0
  0
ARC
  5
15B1
100
AcDbEntity
  8
VHH-025
100
AcDbCircle
 10
103.641738
 20
579.551541
 30
0.0
 40
0.25
100
AcDbArc
 50
0.0
 51
90.0
  0
LINE
  5
15B2
100
AcDbEntity
  8
VHH-025
100
AcDbLine
 10
103.891738
 20
576.801541
 30
0.0
 11
103.891738
 21
579.551541
 31
0.0
  0
LINE
  5
15B3
100
AcDbEntity
  8
VHH-025
100
AcDbLine
 10
103.891738
 20
576.801541
 30
0.0
 11
105.391738
 21
576.801541
 31
0.0
  0
ARC
  5
15B4
100
AcDbEntity
  8
VHH-025
100
AcDbCircle
 10
105.391738
 20
576.551541
 30
0.0
 40
0.25
100
AcDbArc
 50
315.0
 51
90.0
  0
ARC
  5
15B5
100
AcDbEntity
  8
VHH-025
100
AcDbCircle
 10
99.391738
 20
576.551541
 30
0.0
 40
0.25
100
AcDbArc
 50
90.0
 51
225.0
  0
LINE
  5
15B6
100
AcDbEntity
  8
VHH-025
100
AcDbLine
 10
100.891738
 20
576.801541
 30
0.0
 11
99.391738
 21
576.801541
 31
0.0
  0
ARC
  5
15B7
100
AcDbEntity
  8
VHH-025
100
AcDbCircle
 10
128.891738
 20
581.551541
 30
0.0
 40
0.75
100
AcDbArc
 50
0.0
 51
90.0
  0
LINE
  5
15B8
100
AcDbEntity
  8
VHH-025
100
AcDbLine
 10
118.236045
 20
579.701023
 30
0.0
 11
117.70793
 21
577.060446
 31
0.0
  0
LINE
  5
15B9
100
AcDbEntity
  8
VHH-025
100
AcDbLine
 10
120.982396
 20
577.002091
 30
0.0
 11
121.511034
 21
579.645282
 31
0.0
  0
LINE
  5
15BA
100
AcDbEntity
  8
VHH-025
100
AcDbLine
 10
121.257438
 20
579.954619
 30
0.0
 11
118.545382
 21
579.954619
 31
0.0
  0
LINE
  5
15BB
100
AcDbEntity
  8
VHH-025
100
AcDbLine
 10
117.688518
 20
576.551541
 30
0.0
 11
120.811147
 21
576.557697
 31
0.0
  0
LINE
  5
15BC
100
AcDbEntity
  8
VHH-025
100
AcDbLine
 10
123.888518
 20
576.551541
 30
0.0
 11
127.011147
 21
576.557697
 31
0.0
  0
LINE
  5
15BD
100
AcDbEntity
  8
VHH-025
100
AcDbLine
 10
124.436045
 20
579.701023
 30
0.0
 11
123.90793
 21
577.060446
 31
0.0
  0
LINE
  5
15BE
100
AcDbEntity
  8
VHH-025
100
AcDbLine
 10
127.457438
 20
579.954619
 30
0.0
 11
124.745382
 21
579.954619
 31
0.0
  0
LINE
  5
15BF
100
AcDbEntity
  8
VHH-025
100
AcDbLine
 10
127.182396
 20
577.002091
 30
0.0
 11
127.711034
 21
579.645282
 31
0.0
  0
ARC
  5
15C0
100
AcDbEntity
  8
VHH-025
100
AcDbCircle
 10
115.891738
 20
581.551541
 30
0.0
 40
0.75
100
AcDbArc
 50
90.0
 51
180.0
  0
LINE
  5
15C1
100
AcDbEntity
  8
VHH-025
100
AcDbLine
 10
115.891738
 20
582.301541
 30
0.0
 11
128.891738
 21
582.301541
 31
0.0
  0
SPLINE
  5
15C2
100
AcDbEntity
  8
VHH-025
100
AcDbSpline
210
0.0
220
0.0
230
-1.0
 70
     8
 71
     3
 72
    14
 73
    10
 74
     0
 42
0.0000001
 43
0.0000001
 40
0.0
 40
0.0
 40
0.0
 40
0.0
 40
8.543455177382728
 40
32.60806185346405
 40
34.09251365044104
 40
35.82256549595564
 40
37.21403762249804
 40
38.48665207093368
 40
38.6143838058074
 40
38.6143838058074
 40
38.6143838058074
 40
38.6143838058074
 10
122.3917384281221
 20
608.3729801514037
 30
0.0
 10
119.5424519501329
 20
608.3609811172355
 30
0.0
 10
108.6674947128731
 20
608.3151840433101
 30
0.0
 10
96.89776623459056
 20
608.231226788931
 30
0.0
 10
88.20937420696919
 20
607.9590829833205
 30
0.0
 10
86.75786012322168
 20
607.238275151918
 30
0.0
 10
85.92745469660712
 20
605.9360331845164
 30
0.0
 10
85.90336344863681
 20
604.9915641575571
 30
0.0
 10
85.8936889923034
 20
604.5193440493376
 30
0.0
 10
85.89282627612192
 20
604.4762831537054
 30
0.0
  0
SPLINE
  5
15C3
100
AcDbEntity
  8
VHH-025
100
AcDbSpline
210
0.0
220
0.0
230
-1.0
 70
     8
 71
     3
 72
    20
 73
    16
 74
     0
 42
0.0000001
 43
0.0000001
 40
3.141592653589793
 40
3.141592653589793
 40
3.141592653589793
 40
3.141592653589793
 40
3.566852563487359
 40
3.566852563487359
 40
4.097334864786621
 40
4.097334864786621
 40
4.627817166085884
 40
4.627817166085884
 40
5.158299467385146
 40
5.158299467385146
 40
5.688781768684408
 40
5.688781768684408
 40
6.21926406998367
 40
6.21926406998367
 40
6.283185307179586
 40
6.283185307179586
 40
6.283185307179586
 40
6.283185307179586
 10
145.4917384281225
 20
576.0015412051116
 30
0.0
 10
145.4917384281225
 20
576.0951729922908
 30
0.0
 10
145.4686766671347
 20
576.1890425354886
 30
0.0
 10
145.3645821877262
 20
576.3875422148739
 30
0.0
 10
145.2694920441372
 20
576.4888274928798
 30
0.0
 10
145.0229701507905
 20
576.6392383784959
 30
0.0
 10
144.8720710225397
 20
576.6874160518546
 30
0.0
 10
144.5607328657833
 20
576.7102103415655
 30
0.0
 10
144.4011802903605
 20
576.6847236991334
 30
0.0
 10
144.124279986664
 20
576.5704091463667
 30
0.0
 10
144.0077023187914
 20
576.4822256169391
 30
0.0
 10
143.846851241441
 20
576.2767128055966
 30
0.0
 10
143.8019478849028
 20
576.1604139383407
 30
0.0
 10
143.7922592016302
 20
576.0296890004619
 30
0.0
 10
143.7917384281217
 20
576.0156150915472
 30
0.0
 10
143.7917384281217
 20
576.0015412051116
 30
0.0
  0
LINE
  5
15C4
100
AcDbEntity
  8
VHH-025
100
AcDbLine
 10
140.291738
 20
579.351541
 30
0.0
 11
140.291738
 21
576.151541
 31
0.0
  0
CIRCLE
  5
15C5
100
AcDbEntity
  8
VHH-025
100
AcDbCircle
 10
151.391738
 20
590.051541
 30
0.0
 40
2.0
  0
LINE
  5
15C6
100
AcDbEntity
  8
VHH-025
100
AcDbLine
 10
151.391738
 20
595.16479
 30
0.0
 11
153.891738
 21
599.494917
 31
0.0
  0
LINE
  5
15C7
100
AcDbEntity
  8
VHH-025
100
AcDbLine
 10
148.891738
 20
599.494917
 30
0.0
 11
151.391738
 21
595.16479
 31
0.0
  0
LINE
  5
15C8
100
AcDbEntity
  8
VHH-025
100
AcDbLine
 10
148.891738
 20
599.494917
 30
0.0
 11
153.891738
 21
599.494917
 31
0.0
  0
ARC
  5
15D3
100
AcDbEntity
  8
VHH-025
100
AcDbCircle
 10
348.100421
 20
-119.149534
 30
0.0
 40
730.516587
100
AcDbArc
 50
89.663337
 51
92.80173
  0
SPLINE
  5
15D4
100
AcDbEntity
  8
VHH-025
100
AcDbSpline
210
0.0
220
0.0
230
-1.0
 70
     8
 71
     3
 72
    11
 73
     7
 74
     5
 42
0.0000001
 43
0.0000001
 44
0.0000000001
 40
0.0
 40
0.0
 40
0.0
 40
0.0
 40
0.3788822097076336
 40
0.7856242620079092
 40
1.206550869508587
 40
1.477512281568232
 40
1.477512281568232
 40
1.477512281568232
 40
1.477512281568232
 10
288.1198449539351
 20
585.7537630751848
 30
0.0
 10
288.2479771970265
 20
585.7545274824937
 30
0.0
 10
288.513663461356
 20
585.7561125052598
 30
0.0
 10
288.8738980131283
 20
585.5049528597435
 30
0.0
 10
288.9755626198558
 20
585.1335306680005
 30
0.0
 10
288.9779740716774
 20
584.9036668463553
 30
0.0
 10
288.9789184591681
 20
584.8136461725853
 30
0.0
 11
288.1198449539351
 21
585.7537630751848
 31
0.0
 11
288.4970023151163
 21
585.7176513909289
 31
0.0
 11
288.8284809587275
 21
585.4819375688075
 31
0.0
 11
288.966635462355
 21
585.0843290401899
 31
0.0
 11
288.9789184591681
 21
584.8136461725853
 31
0.0
  0
SPLINE
  5
15D5
100
AcDbEntity
  8
VHH-025
100
AcDbSpline
210
0.0
220
0.0
230
-1.0
 70
     8
 71
     3
 72
    12
 73
     8
 74
     6
 42
0.0000001
 43
0.0000001
 44
0.0000000001
 40
0.0
 40
0.0
 40
0.0
 40
0.0
 40
0.4606097870385322
 40
0.8428341308475348
 40
1.231136252854428
 40
1.532631450481291
 40
1.823032378360188
 40
1.823032378360188
 40
1.823032378360188
 40
1.823032378360188
 10
275.0199948927147
 20
583.9202051532484
 30
0.0
 10
275.0304189497519
 20
584.0740984375372
 30
0.0
 10
275.04949312338
 20
584.3556958246463
 30
0.0
 10
275.2138480843098
 20
584.7431231334704
 30
0.0
 10
275.4891467510469
 20
584.9909754753487
 30
0.0
 10
275.8016376612368
 20
585.101669502636
 30
0.0
 10
275.9978894302935
 20
585.124372972142
 30
0.0
 10
276.0941760815758
 20
585.1355119344134
 30
0.0
 11
275.0199948927147
 21
583.9202051532484
 31
0.0
 11
275.0791750734852
 21
584.3769973183734
 31
0.0
 11
275.2364158564187
 21
584.7253804195461
 31
0.0
 11
275.5249913629077
 21
584.9851932656674
 31
0.0
 11
275.8071342666153
 21
585.0914699615113
 31
0.0
 11
276.0941760815758
 21
585.1355119344134
 31
0.0
  0
SPLINE
  5
15D6
100
AcDbEntity
  8
VHH-025
100
AcDbSpline
210
0.0
220
0.0
230
-1.0
 70
     8
 71
     3
 72
    20
 73
    16
 74
     0
 42
0.0000001
 43
0.0000001
 40
0.0
 40
0.0
 40
0.0
 40
0.0
 40
0.411372432094715
 40
0.411372432094715
 40
0.7549641539760199
 40
0.7549641539760199
 40
1.460265566936419
 40
1.460265566936419
 40
1.780008105651267
 40
1.780008105651267
 40
2.128014443002301
 40
2.128014443002301
 40
2.476020780353334
 40
2.476020780353334
 40
2.570156969732271
 40
2.570156969732271
 40
2.570156969732271
 40
2.570156969732271
 10
296.5768339569858
 20
588.0800127985566
 30
0.0
 10
296.7155551580426
 20
588.0697873846675
 30
0.0
 10
296.8377544013355
 20
588.0601437260475
 30
0.0
 10
297.0254323705858
 20
588.0325845736506
 30
0.0
 10
297.0964717670895
 20
588.0165616940011
 30
0.0
 10
297.2731419158599
 20
587.9578439158922
 30
0.0
 10
297.3702577882677
 20
587.8945793828243
 30
0.0
 10
297.4769111362393
 20
587.7755918343955
 30
0.0
 10
297.5055118272294
 20
587.7339537645512
 30
0.0
 10
297.5494020078222
 20
587.6489294260572
 30
0.0
 10
297.5619055249617
 20
587.6138866018773
 30
0.0
 10
297.5865213165588
 20
587.4890743606993
 30
0.0
 10
297.5952249995498
 20
587.4031906175978
 30
0.0
 10
297.603597386831
 20
587.2677466571968
 30
0.0
 10
297.6052887766663
 20
587.2374127361117
 30
0.0
 10
297.6070555909518
 20
587.2056418385055
 30
0.0
  0
SPLINE
  5
15D7
100
AcDbEntity
  8
VHH-025
100
AcDbSpline
210
0.0
220
0.0
230
-1.0
 70
     8
 71
     3
 72
    11
 73
     7
 74
     5
 42
0.0000001
 43
0.0000001
 44
0.0000000001
 40
0.0
 40
0.0
 40
0.0
 40
0.0
 40
0.7911843907099164
 40
1.600893155509642
 40
2.251444458122564
 40
2.582196256357828
 40
2.582196256357828
 40
2.582196256357828
 40
2.582196256357828
 10
272.6033685579595
 20
586.0385176264108
 30
0.0
 10
272.646829037029
 20
586.3045943193704
 30
0.0
 10
272.7347675559057
 20
586.842977484662
 30
0.0
 10
273.3054690211026
 20
587.3992969230035
 30
0.0
 10
273.8572024254243
 20
587.6387947754952
 30
0.0
 10
274.1768018222265
 20
587.7101023783365
 30
0.0
 10
274.2845239675207
 20
587.7341368666074
 30
0.0
 11
272.6033685579595
 21
586.0385176264108
 31
0.0
 11
272.8113865303157
 21
586.8018663431057
 31
0.0
 11
273.3703154928753
 21
587.3877218701818
 31
0.0
 11
273.9633231614889
 21
587.6552268277
 31
0.0
 11
274.2845239675207
 21
587.7341368666074
 31
0.0
  0
SPLINE
  5
15D8
100
AcDbEntity
  8
VHH-025
100
AcDbSpline
210
0.0
220
0.0
230
-1.0
 70
     8
 71
     3
 72
    11
 73
     7
 74
     5
 42
0.0000001
 43
0.0000001
 44
0.0000000001
 40
0.0
 40
0.0
 40
0.0
 40
0.0
 40
0.8012084873059352
 40
1.355387018409438
 40
1.955784421318328
 40
2.570156969732353
 40
2.570156969732353
 40
2.570156969732353
 40
2.570156969732353
 10
296.6282927303282
 20
588.7781188038643
 30
0.0
 10
296.8984727302144
 20
588.7582033021062
 30
0.0
 10
297.355530375361
 20
588.7245126797827
 30
0.0
 10
297.9314953937111
 20
588.3786628649517
 30
0.0
 10
298.2716450530083
 20
587.8618438529627
 30
0.0
 10
298.294444710793
 20
587.4518598500722
 30
0.0
 10
298.3059756873708
 20
587.2445095477451
 30
0.0
 11
296.6282927303282
 21
588.7781188038643
 31
0.0
 11
297.4185986062412
 21
588.6463930940408
 31
0.0
 11
297.8906983097985
 21
588.3561591982997
 31
0.0
 11
298.2174664301565
 21
587.8524731483266
 31
0.0
 11
298.3059756873708
 21
587.2445095477451
 31
0.0
  0
LINE
  5
15D9
100
AcDbEntity
  8
VHH-025
100
AcDbLine
 10
274.284524
 20
587.734137
 30
0.0
 11
296.628293
 21
588.778119
 31
0.0
  0
LINE
  5
15DA
100
AcDbEntity
  8
VHH-025
100
AcDbLine
 10
275.048613
 20
585.745316
 30
0.0
 11
289.216063
 21
586.442668
 31
0.0
  0
LINE
  5
15DB
100
AcDbEntity
  8
VHH-025
100
AcDbLine
 10
276.094176
 20
585.135512
 30
0.0
 11
288.119845
 21
585.753763
 31
0.0
  0
LINE
  5
15DC
100
AcDbEntity
  8
VHH-025
100
AcDbLine
 10
237.390651
 20
585.5
 30
0.0
 11
247.2559
 21
585.5
 31
0.0
  0
ARC
  5
15DD
100
AcDbEntity
  8
VHH-025
100
AcDbCircle
 10
275.073195
 20
585.24592
 30
0.0
 40
0.5
100
AcDbArc
 50
92.817949
 51
179.819431
  0
LINE
  5
15DE
100
AcDbEntity
  8
VHH-025
100
AcDbLine
 10
227.531943
 20
585.5
 30
0.0
 11
237.390651
 21
585.5
 31
0.0
  0
CIRCLE
  5
15DF
100
AcDbEntity
  8
VHH-025
100
AcDbCircle
 10
294.581311
 20
577.554525
 30
0.0
 40
2.21318
  0
CIRCLE
  5
15E0
100
AcDbEntity
  8
VHH-025
100
AcDbCircle
 10
294.581311
 20
577.554525
 30
0.0
 40
1.51318
  0
ARC
  5
15E1
100
AcDbEntity
  8
VHH-025
100
AcDbCircle
 10
289.240644
 20
585.943273
 30
0.0
 40
0.5
100
AcDbArc
 50
359.745727
 51
92.817949
  0
LINE
  5
15E2
100
AcDbEntity
  8
VHH-025
100
AcDbLine
 10
291.685992
 20
587.846433
 30
0.0
 11
296.660964
 21
588.078882
 31
0.0
  0
SPLINE
  5
15E3
100
AcDbEntity
  8
VHH-025
100
AcDbSpline
210
0.0
220
0.0
230
-1.0
 70
     8
 71
     3
 72
    15
 73
    11
 74
     9
 42
0.0000001
 43
0.0000001
 44
0.0000000001
 40
0.0
 40
0.0
 40
0.0
 40
0.0
 40
8.727930916723241
 40
16.25763323255802
 40
20.36216076943229
 40
21.62307303412728
 40
23.69549543386538
 40
25.38624445710595
 40
45.72281463409038
 40
79.43205808847188
 40
79.43205808847188
 40
79.43205808847188
 40
79.43205808847188
 10
247.2558995328545
 20
585.5000001546823
 30
0.0
 10
247.9546780899173
 20
588.3165902787387
 30
0.0
 10
249.256302220527
 20
593.563090238496
 30
0.0
 10
251.1863891775272
 20
600.1571665177075
 30
0.0
 10
253.4928078555124
 20
603.781205837904
 30
0.0
 10
255.031061674444
 20
605.7824605104724
 30
0.0
 10
256.7208092476876
 20
606.3205618189428
 30
0.0
 10
264.6568319667273
 20
607.1052661239026
 30
0.0
 10
283.2177544563667
 20
609.0216375837607
 30
0.0
 10
301.185840770024
 20
610.0672750766847
 30
0.0
 10
312.3928252755713
 20
610.719456003304
 30
0.0
 11
247.2558995328545
 21
585.5000001546823
 31
0.0
 11
249.4212334216363
 21
593.9550641542736
 31
0.0
 11
251.9207555168186
 21
601.0577964637995
 31
0.0
 11
254.0891907569448
 21
604.5427691911445
 31
0.0
 11
254.9250050295131
 21
605.4868635937491
 31
0.0
 11
256.8411533910029
 21
606.2763634732273
 31
0.0
 11
258.5172620288876
 21
606.4983817013017
 31
0.0
 11
278.760280030553
 21
608.4467935539814
 31
0.0
 11
312.3928252755713
 21
610.719456003304
 31
0.0
  0
ARC
  5
15E4
100
AcDbEntity
  8
VHH-025
100
AcDbCircle
 10
356.68742
 20
-119.149534
 30
0.0
 40
730.516587
100
AcDbArc
 50
87.19827
 51
90.336663
  0
SPLINE
  5
15E5
100
AcDbEntity
  8
VHH-025
100
AcDbSpline
210
0.0
220
0.0
230
-1.0
 70
     8
 71
     3
 72
    20
 73
    16
 74
     0
 42
0.0000001
 43
0.0000001
 40
3.141592653589793
 40
3.141592653589793
 40
3.141592653589793
 40
3.141592653589793
 40
3.566852563487359
 40
3.566852563487359
 40
4.097334864786621
 40
4.097334864786621
 40
4.627817166085884
 40
4.627817166085884
 40
5.158299467385146
 40
5.158299467385146
 40
5.688781768684408
 40
5.688781768684408
 40
6.21926406998367
 40
6.21926406998367
 40
6.283185307179586
 40
6.283185307179586
 40
6.283185307179586
 40
6.283185307179586
 10
375.4917372985137
 20
576.0015412051116
 30
0.0
 10
375.4917372985137
 20
576.0951729922908
 30
0.0
 10
375.468675537526
 20
576.1890425354886
 30
0.0
 10
375.3645810581174
 20
576.3875422148739
 30
0.0
 10
375.2694909145284
 20
576.4888274928798
 30
0.0
 10
375.0229690211817
 20
576.6392383784951
 30
0.0
 10
374.872069892931
 20
576.6874160518546
 30
0.0
 10
374.5607317361745
 20
576.7102103415655
 30
0.0
 10
374.4011791607517
 20
576.6847236991325
 30
0.0
 10
374.1242788570553
 20
576.5704091463667
 30
0.0
 10
374.0077011891826
 20
576.4822256169391
 30
0.0
 10
373.8468501118322
 20
576.2767128055966
 30
0.0
 10
373.801946755294
 20
576.1604139383407
 30
0.0
 10
373.7922580720214
 20
576.0296890004619
 30
0.0
 10
373.791737298513
 20
576.0156150915463
 30
0.0
 10
373.791737298513
 20
576.0015412051116
 30
0.0
  0
LINE
  5
15E6
100
AcDbEntity
  8
VHH-025
100
AcDbLine
 10
348.236044
 20
579.701023
 30
0.0
 11
347.707928
 21
577.060446
 31
0.0
  0
LINE
  5
15E7
100
AcDbEntity
  8
VHH-025
100
AcDbLine
 10
350.982395
 20
577.002091
 30
0.0
 11
351.511033
 21
579.645282
 31
0.0
  0
LINE
  5
15E8
100
AcDbEntity
  8
VHH-025
100
AcDbLine
 10
354.436044
 20
579.701023
 30
0.0
 11
353.907928
 21
577.060446
 31
0.0
  0
LINE
  5
15E9
100
AcDbEntity
  8
VHH-025
100
AcDbLine
 10
357.182395
 20
577.002091
 30
0.0
 11
357.711033
 21
579.645282
 31
0.0
  0
LINE
  5
15EA
100
AcDbEntity
  8
VHH-025
100
AcDbLine
 10
330.891737
 20
579.551541
 30
0.0
 11
330.891737
 21
576.801541
 31
0.0
  0
LINE
  5
15EB
100
AcDbEntity
  8
VHH-025
100
AcDbLine
 10
333.891737
 20
576.801541
 30
0.0
 11
333.891737
 21
579.551541
 31
0.0
  0
LINE
  5
15EC
100
AcDbEntity
  8
VHH-025
100
AcDbLine
 10
347.688517
 20
576.551541
 30
0.0
 11
350.811146
 21
576.557697
 31
0.0
  0
LINE
  5
15ED
100
AcDbEntity
  8
VHH-025
100
AcDbLine
 10
353.888517
 20
576.551541
 30
0.0
 11
357.011146
 21
576.557697
 31
0.0
  0
LINE
  5
15EE
100
AcDbEntity
  8
VHH-025
100
AcDbLine
 10
333.891737
 20
576.801541
 30
0.0
 11
335.391737
 21
576.801541
 31
0.0
  0
ARC
  5
15EF
100
AcDbEntity
  8
VHH-025
100
AcDbCircle
 10
335.391737
 20
576.551541
 30
0.0
 40
0.25
100
AcDbArc
 50
315.0
 51
90.0
  0
ARC
  5
15F0
100
AcDbEntity
  8
VHH-025
100
AcDbCircle
 10
329.391737
 20
576.551541
 30
0.0
 40
0.25
100
AcDbArc
 50
90.0
 51
225.0
  0
LINE
  5
15F1
100
AcDbEntity
  8
VHH-025
100
AcDbLine
 10
330.891737
 20
576.801541
 30
0.0
 11
329.391737
 21
576.801541
 31
0.0
  0
LINE
  5
15F2
100
AcDbEntity
  8
VHH-025
100
AcDbLine
 10
345.891737
 20
582.301541
 30
0.0
 11
358.891737
 21
582.301541
 31
0.0
  0
ARC
  5
15F3
100
AcDbEntity
  8
VHH-025
100
AcDbCircle
 10
345.891737
 20
581.551541
 30
0.0
 40
0.75
100
AcDbArc
 50
90.0
 51
180.0
  0
ARC
  5
15F4
100
AcDbEntity
  8
VHH-025
100
AcDbCircle
 10
358.891737
 20
581.551541
 30
0.0
 40
0.75
100
AcDbArc
 50
0.0
 51
90.0
  0
LINE
  5
15F5
100
AcDbEntity
  8
VHH-025
100
AcDbLine
 10
351.257437
 20
579.954619
 30
0.0
 11
348.545381
 21
579.954619
 31
0.0
  0
LINE
  5
15F6
100
AcDbEntity
  8
VHH-025
100
AcDbLine
 10
357.457437
 20
579.954619
 30
0.0
 11
354.745381
 21
579.954619
 31
0.0
  0
ARC
  5
15F7
100
AcDbEntity
  8
VHH-025
100
AcDbCircle
 10
331.141737
 20
579.551541
 30
0.0
 40
0.25
100
AcDbArc
 50
90.0
 51
180.0
  0
LINE
  5
15F8
100
AcDbEntity
  8
VHH-025
100
AcDbLine
 10
333.641737
 20
579.801541
 30
0.0
 11
331.141737
 21
579.801541
 31
0.0
  0
ARC
  5
15F9
100
AcDbEntity
  8
VHH-025
100
AcDbCircle
 10
333.641737
 20
579.551541
 30
0.0
 40
0.25
100
AcDbArc
 50
0.0
 51
90.0
  0
LINE
  5
15FA
100
AcDbEntity
  8
VHH-025
100
AcDbLine
 10
370.291737
 20
579.351541
 30
0.0
 11
370.291737
 21
576.151541
 31
0.0
  0
CIRCLE
  5
15FB
100
AcDbEntity
  8
VHH-025
100
AcDbCircle
 10
381.391737
 20
590.051541
 30
0.0
 40
2.0
  0
LINE
  5
15FC
100
AcDbEntity
  8
VHH-025
100
AcDbLine
 10
381.391737
 20
595.16479
 30
0.0
 11
383.891737
 21
599.494917
 31
0.0
  0
LINE
  5
15FD
100
AcDbEntity
  8
VHH-025
100
AcDbLine
 10
378.891737
 20
599.494917
 30
0.0
 11
381.391737
 21
595.16479
 31
0.0
  0
LINE
  5
15FE
100
AcDbEntity
  8
VHH-025
100
AcDbLine
 10
378.891737
 20
599.494917
 30
0.0
 11
383.891737
 21
599.494917
 31
0.0
  0
SPLINE
  5
15FF
100
AcDbEntity
  8
VHH-025
100
AcDbSpline
210
0.0
220
0.0
230
-1.0
 70
     8
 71
     3
 72
    14
 73
    10
 74
     0
 42
0.0000001
 43
0.0000001
 40
0.0
 40
0.0
 40
0.0
 40
0.0
 40
8.543455177382728
 40
32.60806185346405
 40
34.09251365044104
 40
35.82256549595564
 40
37.21403762249804
 40
38.48665207093368
 40
38.6143838058074
 40
38.6143838058074
 40
38.6143838058074
 40
38.6143838058074
 10
352.3917372985133
 20
608.3729801514037
 30
0.0
 10
349.5424508205242
 20
608.3609811172355
 30
0.0
 10
338.6674935832643
 20
608.3151840433101
 30
0.0
 10
326.8977651049817
 20
608.2312267889301
 30
0.0
 10
318.2093730773603
 20
607.9590829833196
 30
0.0
 10
316.7578589936129
 20
607.238275151918
 30
0.0
 10
315.9274535669983
 20
605.9360331845164
 30
0.0
 10
315.903362319028
 20
604.9915641575571
 30
0.0
 10
315.8936878626946
 20
604.5193440493376
 30
0.0
 10
315.8928251465131
 20
604.4762831537054
 30
0.0
  0
SPLINE
  5
1600
100
AcDbEntity
  8
VHH-025
100
AcDbSpline
210
0.0
220
0.0
230
-1.0
 70
     8
 71
     3
 72
    14
 73
    10
 74
     0
 42
0.0000001
 43
0.0000001
 40
0.0
 40
0.0
 40
0.0
 40
0.0
 40
8.543455177382728
 40
32.60806185346405
 40
34.09251365044104
 40
35.82256549595564
 40
37.21403762249804
 40
38.48665207093368
 40
38.6143838058074
 40
38.6143838058074
 40
38.6143838058074
 40
38.6143838058074
 10
352.3961037105518
 20
608.3729801514037
 30
0.0
 10
355.245390188541
 20
608.3609811172355
 30
0.0
 10
366.1203474258009
 20
608.3151840433101
 30
0.0
 10
377.8900759040834
 20
608.2312267889301
 30
0.0
 10
386.5784679317048
 20
607.9590829833196
 30
0.0
 10
388.0299820154523
 20
607.238275151918
 30
0.0
 10
388.8603874420669
 20
605.9360331845164
 30
0.0
 10
388.8844786900372
 20
604.9915641575571
 30
0.0
 10
388.8941531463706
 20
604.5193440493376
 30
0.0
 10
388.8950158625521
 20
604.4762831537054
 30
0.0
  0
LINE
  5
170B
100
AcDbEntity
  8
VHH-025
100
AcDbLine
 10
457.531941
 20
585.5
 30
0.0
 11
467.390649
 21
585.5
 31
0.0
  0
LINE
  5
170C
100
AcDbEntity
  8
VHH-025
100
AcDbLine
 10
457.531941
 20
585.5
 30
0.0
 11
467.390649
 21
585.5
 31
0.0
  0
ENDSEC
  0
SECTION
  2
OBJECTS
  0
DICTIONARY
  5
C
100
AcDbDictionary
  3
ACAD_GROUP
350
D
  3
ACAD_MLINESTYLE
350
E
  3
AMACAD
350
975
  0
DICTIONARY
  5
D
102
{ACAD_REACTORS
330
C
102
}
100
AcDbDictionary
  0
DICTIONARY
  5
E
102
{ACAD_REACTORS
330
C
102
}
100
AcDbDictionary
  3
STANDARD
350
1B
  0
DICTIONARY
  5
975
102
{ACAD_REACTORS
330
C
102
}
100
AcDbDictionary
  3
AM_LOADER
350
976
  0
MLINESTYLE
  5
1B
102
{ACAD_REACTORS
330
E
102
}
100
AcDbMlineStyle
  2
STANDARD
 70
     0
  3

 62
     0
 51
90.0
 52
90.0
 71
     2
 49
0.5
 62
   256
  6
BYLAYER
 49
-0.5
 62
   256
  6
BYLAYER
  0
AMLOADER
  5
976
102
{ACAD_REACTORS
330
975
102
}
100
AMLoader
 90
        1
 70
     3
 70
     0
 70
   921
 70
   861
280
     0
  0
ENDSEC
  0
EOF
